  0
SECTION
  2
HEADER
  9
$ACADVER
  1
AC1015
  9
$ACADMAINTVER
 70
     6
  9
$DWGCODEPAGE
  3
ANSI_1252
  9
$INSBASE
 10
0.0
 20
0.0
 30
0.0
  9
$EXTMIN
 10
0.0
 20
0.0
 30
0.0
  9
$EXTMAX
 10
431.8
 20
279.4
 30
0.0
  9
$LIMMIN
 10
0.0
 20
0.0
  9
$LIMMAX
 10
431.8
 20
279.4
  9
$ORTHOMODE
 70
     0
  9
$REGENMODE
 70
     1
  9
$FILLMODE
 70
     1
  9
$QTEXTMODE
 70
     0
  9
$MIRRTEXT
 70
     1
  9
$LTSCALE
 40
1.0
  9
$ATTMODE
 70
     1
  9
$TEXTSIZE
 40
4.9388888889
  9
$TRACEWID
 40
1.0
  9
$TEXTSTYLE
  7
Standard
  9
$CLAYER
  8
0
  9
$CELTYPE
  6
ByLayer
  9
$CECOLOR
 62
   256
  9
$CELTSCALE
 40
1.0
  9
$DISPSILH
 70
     0
  9
$DIMSCALE
 40
1.0
  9
$DIMASZ
 40
5.1366373698
  9
$DIMEXO
 40
2.0
  9
$DIMDLI
 40
3.75
  9
$DIMRND
 40
0.0
  9
$DIMDLE
 40
0.0
  9
$DIMEXE
 40
2.0
  9
$DIMTP
 40
0.0
  9
$DIMTM
 40
0.0
  9
$DIMTXT
 40
7.0555555556
  9
$DIMCEN
 40
2.5
  9
$DIMTSZ
 40
0.0
  9
$DIMTOL
 70
     0
  9
$DIMLIM
 70
     0
  9
$DIMTIH
 70
     1
  9
$DIMTOH
 70
     1
  9
$DIMSE1
 70
     0
  9
$DIMSE2
 70
     0
  9
$DIMTAD
 70
     1
  9
$DIMZIN
 70
     0
  9
$DIMBLK
  1

  9
$DIMASO
 70
     1
  9
$DIMSHO
 70
     1
  9
$DIMPOST
  1

  9
$DIMAPOST
  1

  9
$DIMALT
 70
     0
  9
$DIMALTD
 70
     3
  9
$DIMALTF
 40
0.0393700787
  9
$DIMLFAC
 40
1.0
  9
$DIMTOFL
 70
     1
  9
$DIMTVP
 40
0.0
  9
$DIMTIX
 70
     0
  9
$DIMSOXD
 70
     0
  9
$DIMSAH
 70
     0
  9
$DIMBLK1
  1

  9
$DIMBLK2
  1

  9
$DIMSTYLE
  2
ISO-25
  9
$DIMCLRD
 70
     0
  9
$DIMCLRE
 70
     0
  9
$DIMCLRT
 70
     0
  9
$DIMTFAC
 40
1.0
  9
$DIMGAP
 40
2.0
  9
$DIMJUST
 70
     0
  9
$DIMSD1
 70
     0
  9
$DIMSD2
 70
     0
  9
$DIMTOLJ
 70
     0
  9
$DIMTZIN
 70
     0
  9
$DIMALTZ
 70
     0
  9
$DIMALTTZ
 70
     0
  9
$DIMUPT
 70
     0
  9
$DIMDEC
 70
     2
  9
$DIMTDEC
 70
     2
  9
$DIMALTU
 70
     2
  9
$DIMALTTD
 70
     3
  9
$DIMTXSTY
  7
Standard
  9
$DIMAUNIT
 70
     0
  9
$DIMADEC
 70
     2
  9
$DIMALTRND
 40
0.0
  9
$DIMAZIN
 70
     0
  9
$DIMDSEP
 70
    44
  9
$DIMATFIT
 70
     3
  9
$DIMFRAC
 70
     0
  9
$DIMLDRBLK
  1

  9
$DIMLUNIT
 70
     2
  9
$DIMLWD
 70
    -2
  9
$DIMLWE
 70
    -2
  9
$DIMTMOVE
 70
     0
  9
$LUNITS
 70
     2
  9
$LUPREC
 70
     2
  9
$SKETCHINC
 40
1.0
  9
$FILLETRAD
 40
10.0
  9
$AUNITS
 70
     0
  9
$AUPREC
 70
     2
  9
$MENU
  1
.
  9
$ELEVATION
 40
0.0
  9
$PELEVATION
 40
0.0
  9
$THICKNESS
 40
0.0
  9
$LIMCHECK
 70
     0
  9
$CHAMFERA
 40
0.0
  9
$CHAMFERB
 40
0.0
  9
$CHAMFERC
 40
0.0
  9
$CHAMFERD
 40
0.0
  9
$SKPOLY
 70
     0
  9
$TDCREATE
 40
2457676.583670532
  9
$TDUCREATE
 40
2457676.500337199
  9
$TDUPDATE
 40
2457676.583671065
  9
$TDUUPDATE
 40
2457676.500337732
  9
$TDINDWG
 40
0.0000000116
  9
$TDUSRTIMER
 40
0.0000000116
  9
$USRTIMER
 70
     1
  9
$ANGBASE
 50
0.0
  9
$ANGDIR
 70
     0
  9
$PDMODE
 70
     0
  9
$PDSIZE
 40
-1.0
  9
$PLINEWID
 40
0.0
  9
$SPLFRAME
 70
     0
  9
$SPLINETYPE
 70
     6
  9
$SPLINESEGS
 70
     8
  9
$HANDSEED
  5
440
  9
$SURFTAB1
 70
     6
  9
$SURFTAB2
 70
     6
  9
$SURFTYPE
 70
     6
  9
$SURFU
 70
     6
  9
$SURFV
 70
     6
  9
$UCSBASE
  2

  9
$UCSNAME
  2

  9
$UCSORG
 10
0.0
 20
0.0
 30
0.0
  9
$UCSXDIR
 10
1.0
 20
0.0
 30
0.0
  9
$UCSYDIR
 10
0.0
 20
1.0
 30
0.0
  9
$UCSORTHOREF
  2

  9
$UCSORTHOVIEW
 70
     0
  9
$UCSORGTOP
 10
0.0
 20
0.0
 30
0.0
  9
$UCSORGBOTTOM
 10
0.0
 20
0.0
 30
0.0
  9
$UCSORGLEFT
 10
0.0
 20
0.0
 30
0.0
  9
$UCSORGRIGHT
 10
0.0
 20
0.0
 30
0.0
  9
$UCSORGFRONT
 10
0.0
 20
0.0
 30
0.0
  9
$UCSORGBACK
 10
0.0
 20
0.0
 30
0.0
  9
$PUCSBASE
  2

  9
$PUCSNAME
  2

  9
$PUCSORG
 10
0.0
 20
0.0
 30
0.0
  9
$PUCSXDIR
 10
1.0
 20
0.0
 30
0.0
  9
$PUCSYDIR
 10
0.0
 20
1.0
 30
0.0
  9
$PUCSORTHOREF
  2

  9
$PUCSORTHOVIEW
 70
     0
  9
$PUCSORGTOP
 10
0.0
 20
0.0
 30
0.0
  9
$PUCSORGBOTTOM
 10
0.0
 20
0.0
 30
0.0
  9
$PUCSORGLEFT
 10
0.0
 20
0.0
 30
0.0
  9
$PUCSORGRIGHT
 10
0.0
 20
0.0
 30
0.0
  9
$PUCSORGFRONT
 10
0.0
 20
0.0
 30
0.0
  9
$PUCSORGBACK
 10
0.0
 20
0.0
 30
0.0
  9
$USERI1
 70
     0
  9
$USERI2
 70
     0
  9
$USERI3
 70
     0
  9
$USERI4
 70
     0
  9
$USERI5
 70
     0
  9
$USERR1
 40
0.0
  9
$USERR2
 40
0.0
  9
$USERR3
 40
0.0
  9
$USERR4
 40
0.0
  9
$USERR5
 40
0.0
  9
$WORLDVIEW
 70
     1
  9
$SHADEDGE
 70
     3
  9
$SHADEDIF
 70
    70
  9
$TILEMODE
 70
     1
  9
$MAXACTVP
 70
    64
  9
$PINSBASE
 10
0.0
 20
0.0
 30
0.0
  9
$PLIMCHECK
 70
     0
  9
$PEXTMIN
 10
1.0000000000E+20
 20
1.0000000000E+20
 30
1.0000000000E+20
  9
$PEXTMAX
 10
-1.0000000000E+20
 20
-1.0000000000E+20
 30
-1.0000000000E+20
  9
$PLIMMIN
 10
0.0
 20
0.0
  9
$PLIMMAX
 10
420.0
 20
297.0
  9
$UNITMODE
 70
     0
  9
$VISRETAIN
 70
     1
  9
$PLINEGEN
 70
     0
  9
$PSLTSCALE
 70
     1
  9
$TREEDEPTH
 70
  3020
  9
$CMLSTYLE
  2
Standard
  9
$CMLJUST
 70
     0
  9
$CMLSCALE
 40
20.0
  9
$PROXYGRAPHICS
 70
     1
  9
$MEASUREMENT
 70
     1
  9
$CELWEIGHT
370
    -1
  9
$ENDCAPS
280
     0
  9
$JOINSTYLE
280
     0
  9
$LWDISPLAY
290
     1
  9
$INSUNITS
 70
     4
  9
$HYPERLINKBASE
  1

  9
$STYLESHEET
  1

  9
$XEDIT
290
     1
  9
$CEPSNTYPE
380
     0
  9
$PSTYLEMODE
290
     1
  9
$FINGERPRINTGUID
  2
{5845515A-A9B0-4F4F-94FC-EB6F7D2DF996}
  9
$VERSIONGUID
  2
{FAEB1C32-E019-11D5-929B-00C0DF256EC4}
  9
$EXTNAMES
290
     1
  9
$PSVPSCALE
 40
0.0
  9
$OLESTARTUP
290
     0
  0
ENDSEC
  0
SECTION
  2
CLASSES
  0
CLASS
  1
ACDBDICTIONARYWDFLT
  2
AcDbDictionaryWithDefault
  3
ObjectDBX Classes
 90
        0
280
     0
281
     0
  0
CLASS
  1
VISUALSTYLE
  2
AcDbVisualStyle
  3
ObjectDBX Classes
 90
     4095
280
     0
281
     0
  0
CLASS
  1
MATERIAL
  2
AcDbMaterial
  3
ObjectDBX Classes
 90
     1153
280
     0
281
     0
  0
CLASS
  1
SCALE
  2
AcDbScale
  3
ObjectDBX Classes
 90
     1153
280
     0
281
     0
  0
CLASS
  1
TABLESTYLE
  2
AcDbTableStyle
  3
ObjectDBX Classes
 90
     4095
280
     0
281
     0
  0
CLASS
  1
MLEADERSTYLE
  2
AcDbMLeaderStyle
  3
ACDB_MLEADERSTYLE_CLASS
 90
     4095
280
     0
281
     0
  0
CLASS
  1
SUN
  2
AcDbSun
  3
SCENEOE
 90
     1153
280
     0
281
     0
  0
CLASS
  1
ACDBPLACEHOLDER
  2
AcDbPlaceHolder
  3
ObjectDBX Classes
 90
        0
280
     0
281
     0
  0
CLASS
  1
LAYOUT
  2
AcDbLayout
  3
ObjectDBX Classes
 90
        0
280
     0
281
     0
  0
ENDSEC
  0
SECTION
  2
TABLES
  0
TABLE
  2
VPORT
  5
8
330
0
100
AcDbSymbolTable
 70
     1
  0
VPORT
  5
29
330
8
100
AcDbSymbolTableRecord
100
AcDbViewportTableRecord
  2
*Active
 70
     0
 10
0.0
 20
0.0
 11
1.0
 21
1.0
 12
215.9
 22
139.7
 13
0.0
 23
0.0
 14
10.0
 24
10.0
 15
10.0
 25
10.0
 16
0.0
 26
0.0
 36
1.0
 17
0.0
 27
0.0
 37
0.0
 40
279.4
 41
1.5454545455
 42
50.0
 43
0.0
 44
0.0
 50
0.0
 51
0.0
 71
     0
 72
  2000
 73
     1
 74
     3
 75
     0
 76
     0
 77
     0
 78
     0
281
     0
 65
     1
110
0.0
120
0.0
130
0.0
111
1.0
121
0.0
131
0.0
112
0.0
122
1.0
132
0.0
 79
     0
146
0.0
  0
ENDTAB
  0
TABLE
  2
LTYPE
  5
5
330
0
100
AcDbSymbolTable
 70
     6
  0
LTYPE
  5
14
330
5
100
AcDbSymbolTableRecord
100
AcDbLinetypeTableRecord
  2
ByBlock
 70
     0
  3

 72
    65
 73
     0
 40
0.0
  0
LTYPE
  5
15
330
5
100
AcDbSymbolTableRecord
100
AcDbLinetypeTableRecord
  2
ByLayer
 70
     0
  3

 72
    65
 73
     0
 40
0.0
  0
LTYPE
  5
16
330
5
100
AcDbSymbolTableRecord
100
AcDbLinetypeTableRecord
  2
Continuous
 70
     0
  3
Solid line
 72
    65
 73
     0
 40
0.0
  0
LTYPE
  5
6E
330
5
100
AcDbSymbolTableRecord
100
AcDbLinetypeTableRecord
  2
HIDDEN
 70
     0
  3
Hidden __ __ __ __ __ __ __ __ __ __ __ __ __ __
 72
    65
 73
     2
 40
1.905
 49
1.27
 74
     0
 49
-0.635
 74
     0
  0
LTYPE
  5
6F
330
5
100
AcDbSymbolTableRecord
100
AcDbLinetypeTableRecord
  2
PHANTOM
 70
     0
  3
Phantom ______  __  __  ______  __  __  ______
 72
    65
 73
     6
 40
12.7
 49
6.35
 74
     0
 49
-1.27
 74
     0
 49
1.27
 74
     0
 49
-1.27
 74
     0
 49
1.27
 74
     0
 49
-1.27
 74
     0
  0
LTYPE
  5
70
330
5
100
AcDbSymbolTableRecord
100
AcDbLinetypeTableRecord
  2
CENTER
 70
     0
  3
Center ____ _ ____ _ ____ _ ____ _ ____ _ ____
 72
    65
 73
     4
 40
10.16
 49
6.35
 74
     0
 49
-1.27
 74
     0
 49
1.27
 74
     0
 49
-1.27
 74
     0
  0
LTYPE
  5
71
330
5
100
AcDbSymbolTableRecord
100
AcDbLinetypeTableRecord
  2
CENTERX2
 70
     0
  3
Center (2x) ________  __  ________  __  _____
 72
    65
 73
     4
 40
20.32
 49
12.7
 74
     0
 49
-2.54
 74
     0
 49
2.54
 74
     0
 49
-2.54
 74
     0
  0
LTYPE
  5
72
330
5
100
AcDbSymbolTableRecord
100
AcDbLinetypeTableRecord
  2
DOT2
 70
     0
  3
Dot (.5x) ........................................
 72
    65
 73
     2
 40
0.635
 49
0.0
 74
     0
 49
-0.635
 74
     0
  0
ENDTAB
  0
TABLE
  2
LAYER
  5
2
330
0
100
AcDbSymbolTable
 70
     3
  0
LAYER
  5
10
330
2
100
AcDbSymbolTableRecord
100
AcDbLayerTableRecord
  2
0
 70
     0
 62
     7
  6
Continuous
370
    -3
390
F
  0
LAYER
  5
73
330
2
100
AcDbSymbolTableRecord
100
AcDbLayerTableRecord
  2
SLD-0
 70
     0
 62
   179
  6
Continuous
370
    -3
390
F
  0
LAYER
  5
74
330
2
100
AcDbSymbolTableRecord
100
AcDbLayerTableRecord
  2
EBENE_1
 70
     0
 62
   179
  6
Continuous
370
    -3
390
F
  0
ENDTAB
  0
TABLE
  2
STYLE
  5
3
330
0
100
AcDbSymbolTable
 70
     3
  0
STYLE
  5
11
330
3
100
AcDbSymbolTableRecord
100
AcDbTextStyleTableRecord
  2
Standard
 70
     0
 40
0.0
 41
1.0
 50
0.0
 71
     0
 42
4.9388888889
  3
txt
  4

  0
STYLE
  5
96
330
3
100
AcDbSymbolTableRecord
100
AcDbTextStyleTableRecord
  2
SLDTEXTSTYLE0
 70
     0
 40
0.0
 41
0.605
 50
0.0
 71
     0
 42
4.9388888889
  3
TXT
  4

  0
STYLE
  5
16E
330
3
100
AcDbSymbolTableRecord
100
AcDbTextStyleTableRecord
  2
SLDTEXTSTYLE1
 70
     0
 40
0.0
 41
0.75
 50
0.0
 71
     0
 42
4.9388888889
  3
TXT
  4

  0
ENDTAB
  0
TABLE
  2
VIEW
  5
6
330
0
100
AcDbSymbolTable
 70
     0
  0
ENDTAB
  0
TABLE
  2
UCS
  5
7
330
0
100
AcDbSymbolTable
 70
     0
  0
ENDTAB
  0
TABLE
  2
APPID
  5
9
330
0
100
AcDbSymbolTable
 70
     1
  0
APPID
  5
12
330
9
100
AcDbSymbolTableRecord
100
AcDbRegAppTableRecord
  2
ACAD
 70
     0
  0
ENDTAB
  0
TABLE
  2
DIMSTYLE
  5
A
330
0
100
AcDbSymbolTable
 70
     1
100
AcDbDimStyleTable
  0
DIMSTYLE
105
27
330
A
100
AcDbSymbolTableRecord
100
AcDbDimStyleTableRecord
  2
ISO-25
 70
     0
 41
2.5
 42
0.625
 43
3.75
 44
1.25
 73
     0
 74
     0
 77
     1
 78
     8
140
2.5
141
2.5
143
0.0393700787
147
0.625
171
     3
172
     1
178
     0
271
     2
272
     2
274
     3
278
    44
283
     0
284
     8
340
11
  0
ENDTAB
  0
TABLE
  2
BLOCK_RECORD
  5
1
330
0
100
AcDbSymbolTable
 70
    25
  0
BLOCK_RECORD
  5
1F
330
1
100
AcDbSymbolTableRecord
100
AcDbBlockTableRecord
  2
*Model_Space
340
22
  0
BLOCK_RECORD
  5
1B
330
1
100
AcDbSymbolTableRecord
100
AcDbBlockTableRecord
  2
*Paper_Space
340
1E
  0
BLOCK_RECORD
  5
23
330
1
100
AcDbSymbolTableRecord
100
AcDbBlockTableRecord
  2
*Paper_Space0
340
26
  0
BLOCK_RECORD
  5
75
330
1
100
AcDbSymbolTableRecord
100
AcDbBlockTableRecord
  2
Block1
340
0
102
{BLKREFS
331
16D
102
}
  0
BLOCK_RECORD
  5
8C
330
1
100
AcDbSymbolTableRecord
100
AcDbBlockTableRecord
  2
SW_BLOCK_DIMENSION_0
340
0
102
{BLKREFS
331
98
102
}
  0
BLOCK_RECORD
  5
8F
330
1
100
AcDbSymbolTableRecord
100
AcDbBlockTableRecord
  2
_ORIGIN
340
0
102
{BLKREFS
331
94
331
104
102
}
  0
BLOCK_RECORD
  5
99
330
1
100
AcDbSymbolTableRecord
100
AcDbBlockTableRecord
  2
SW_BLOCK_DIMENSION_1
340
0
102
{BLKREFS
331
A0
102
}
  0
BLOCK_RECORD
  5
A1
330
1
100
AcDbSymbolTableRecord
100
AcDbBlockTableRecord
  2
SW_BLOCK_DIMENSION_2
340
0
102
{BLKREFS
331
A8
102
}
  0
BLOCK_RECORD
  5
A9
330
1
100
AcDbSymbolTableRecord
100
AcDbBlockTableRecord
  2
SW_BLOCK_DIMENSION_3
340
0
102
{BLKREFS
331
B0
102
}
  0
BLOCK_RECORD
  5
B1
330
1
100
AcDbSymbolTableRecord
100
AcDbBlockTableRecord
  2
SW_BLOCK_DIMENSION_4
340
0
102
{BLKREFS
331
B8
102
}
  0
BLOCK_RECORD
  5
B9
330
1
100
AcDbSymbolTableRecord
100
AcDbBlockTableRecord
  2
SW_BLOCK_DIMENSION_5
340
0
102
{BLKREFS
331
C0
102
}
  0
BLOCK_RECORD
  5
C1
330
1
100
AcDbSymbolTableRecord
100
AcDbBlockTableRecord
  2
SW_BLOCK_DIMENSION_6
340
0
102
{BLKREFS
331
C8
102
}
  0
BLOCK_RECORD
  5
C9
330
1
100
AcDbSymbolTableRecord
100
AcDbBlockTableRecord
  2
SW_BLOCK_DIMENSION_7
340
0
102
{BLKREFS
331
D0
102
}
  0
BLOCK_RECORD
  5
D1
330
1
100
AcDbSymbolTableRecord
100
AcDbBlockTableRecord
  2
SW_BLOCK_DIMENSION_8
340
0
102
{BLKREFS
331
D8
102
}
  0
BLOCK_RECORD
  5
D9
330
1
100
AcDbSymbolTableRecord
100
AcDbBlockTableRecord
  2
SW_BLOCK_DIMENSION_9
340
0
102
{BLKREFS
331
E0
102
}
  0
BLOCK_RECORD
  5
E1
330
1
100
AcDbSymbolTableRecord
100
AcDbBlockTableRecord
  2
SW_BLOCK_DIMENSION_10
340
0
102
{BLKREFS
331
E8
102
}
  0
BLOCK_RECORD
  5
E9
330
1
100
AcDbSymbolTableRecord
100
AcDbBlockTableRecord
  2
SW_BLOCK_DIMENSION_11
340
0
102
{BLKREFS
331
F0
102
}
  0
BLOCK_RECORD
  5
F1
330
1
100
AcDbSymbolTableRecord
100
AcDbBlockTableRecord
  2
SW_BLOCK_DIMENSION_12
340
0
102
{BLKREFS
331
F8
102
}
  0
BLOCK_RECORD
  5
F9
330
1
100
AcDbSymbolTableRecord
100
AcDbBlockTableRecord
  2
SW_BLOCK_DIMENSION_13
340
0
102
{BLKREFS
331
100
102
}
  0
BLOCK_RECORD
  5
101
330
1
100
AcDbSymbolTableRecord
100
AcDbBlockTableRecord
  2
SW_BLOCK_DIMENSION_14
340
0
102
{BLKREFS
331
110
102
}
  0
BLOCK_RECORD
  5
111
330
1
100
AcDbSymbolTableRecord
100
AcDbBlockTableRecord
  2
SW_BLOCK_DIMENSION_15
340
0
102
{BLKREFS
331
121
102
}
  0
BLOCK_RECORD
  5
122
330
1
100
AcDbSymbolTableRecord
100
AcDbBlockTableRecord
  2
SW_BLOCK_DIMENSION_16
340
0
102
{BLKREFS
331
132
102
}
  0
BLOCK_RECORD
  5
133
330
1
100
AcDbSymbolTableRecord
100
AcDbBlockTableRecord
  2
SW_BLOCK_DIMENSION_17
340
0
102
{BLKREFS
331
143
102
}
  0
BLOCK_RECORD
  5
144
330
1
100
AcDbSymbolTableRecord
100
AcDbBlockTableRecord
  2
SW_BLOCK_DIMENSION_18
340
0
102
{BLKREFS
331
154
102
}
  0
BLOCK_RECORD
  5
155
330
1
100
AcDbSymbolTableRecord
100
AcDbBlockTableRecord
  2
SW_BLOCK_DIMENSION_19
340
0
102
{BLKREFS
331
165
102
}
  0
BLOCK_RECORD
  5
166
330
1
100
AcDbSymbolTableRecord
100
AcDbBlockTableRecord
  2
SW_NOTE_0
340
0
102
{BLKREFS
331
16B
102
}
  0
BLOCK_RECORD
  5
171
330
1
100
AcDbSymbolTableRecord
100
AcDbBlockTableRecord
  2
SW_NOTE_1
340
0
102
{BLKREFS
331
178
102
}
  0
ENDTAB
  0
ENDSEC
  0
SECTION
  2
BLOCKS
  0
BLOCK
  5
20
330
1F
100
AcDbEntity
  8
0
100
AcDbBlockBegin
  2
*Model_Space
 70
     0
 10
0.0
 20
0.0
 30
0.0
  3
*Model_Space
  1

  0
ENDBLK
  5
21
330
1F
100
AcDbEntity
  8
0
100
AcDbBlockEnd
  0
BLOCK
  5
1C
330
1B
100
AcDbEntity
 67
     1
  8
0
100
AcDbBlockBegin
  2
*Paper_Space
 70
     0
 10
0.0
 20
0.0
 30
0.0
  3
*Paper_Space
  1

  0
ENDBLK
  5
1D
330
1B
100
AcDbEntity
 67
     1
  8
0
100
AcDbBlockEnd
  0
BLOCK
  5
24
330
23
100
AcDbEntity
  8
0
100
AcDbBlockBegin
  2
*Paper_Space0
 70
     0
 10
0.0
 20
0.0
 30
0.0
  3
*Paper_Space0
  1

  0
ENDBLK
  5
25
330
23
100
AcDbEntity
  8
0
100
AcDbBlockEnd
  0
BLOCK
  5
76
330
75
100
AcDbEntity
  8
0
100
AcDbBlockBegin
  2
Block1
 70
     0
 10
0.0
 20
0.0
 30
0.0
  3
Block1
  1

  0
LINE
  5
78
330
75
100
AcDbEntity
  8
EBENE_1
100
AcDbLine
 10
363.6834285714
 20
41.3579706949
 30
0.0
 11
388.6834285714
 21
41.3579706949
 31
0.0
  0
LINE
  5
79
330
75
100
AcDbEntity
  8
EBENE_1
100
AcDbLine
 10
374.9034285714
 20
41.3579706949
 30
0.0
 11
374.9034285714
 21
171.3579706949
 31
0.0
  0
LINE
  5
7A
330
75
100
AcDbEntity
  8
EBENE_1
100
AcDbLine
 10
374.9034285714
 20
51.3579706949
 30
0.0
 11
384.9034285714
 21
51.3579706949
 31
0.0
  0
LINE
  5
7B
330
75
100
AcDbEntity
  8
EBENE_1
100
AcDbLine
 10
374.9034285714
 20
61.3579706949
 30
0.0
 11
384.9034285714
 21
61.3579706949
 31
0.0
  0
LINE
  5
7C
330
75
100
AcDbEntity
  8
EBENE_1
100
AcDbLine
 10
374.9034285714
 20
71.3579706949
 30
0.0
 11
384.9034285714
 21
71.3579706949
 31
0.0
  0
LINE
  5
7D
330
75
100
AcDbEntity
  8
EBENE_1
100
AcDbLine
 10
374.9034285714
 20
81.3579706949
 30
0.0
 11
384.9034285714
 21
81.3579706949
 31
0.0
  0
LINE
  5
7E
330
75
100
AcDbEntity
  8
EBENE_1
100
AcDbLine
 10
374.9034285714
 20
91.3579706949
 30
0.0
 11
384.9034285714
 21
91.3579706949
 31
0.0
  0
LINE
  5
7F
330
75
100
AcDbEntity
  8
EBENE_1
100
AcDbLine
 10
374.9034285714
 20
101.3579706949
 30
0.0
 11
384.9034285714
 21
101.3579706949
 31
0.0
  0
LINE
  5
80
330
75
100
AcDbEntity
  8
EBENE_1
100
AcDbLine
 10
374.9034285714
 20
111.3579706949
 30
0.0
 11
384.9034285714
 21
111.3579706949
 31
0.0
  0
LINE
  5
81
330
75
100
AcDbEntity
  8
EBENE_1
100
AcDbLine
 10
374.9034285714
 20
121.3579706949
 30
0.0
 11
384.9034285714
 21
121.3579706949
 31
0.0
  0
LINE
  5
82
330
75
100
AcDbEntity
  8
EBENE_1
100
AcDbLine
 10
374.9034285714
 20
131.3579706949
 30
0.0
 11
384.9034285714
 21
131.3579706949
 31
0.0
  0
LINE
  5
83
330
75
100
AcDbEntity
  8
EBENE_1
100
AcDbLine
 10
374.9034285714
 20
141.3579706949
 30
0.0
 11
384.9034285714
 21
141.3579706949
 31
0.0
  0
LINE
  5
84
330
75
100
AcDbEntity
  8
EBENE_1
100
AcDbLine
 10
374.9034285714
 20
151.3579706949
 30
0.0
 11
384.9034285714
 21
151.3579706949
 31
0.0
  0
LINE
  5
85
330
75
100
AcDbEntity
  8
EBENE_1
100
AcDbLine
 10
374.9034285714
 20
161.3579706949
 30
0.0
 11
384.9034285714
 21
161.3579706949
 31
0.0
  0
LINE
  5
86
330
75
100
AcDbEntity
  8
EBENE_1
100
AcDbLine
 10
374.9034285714
 20
171.3579706949
 30
0.0
 11
384.9034285714
 21
171.3579706949
 31
0.0
  0
LINE
  5
87
330
75
100
AcDbEntity
  8
EBENE_1
100
AcDbLine
 10
374.9034285714
 20
66.7579706949
 30
0.0
 11
362.9034285714
 21
66.7579706949
 31
0.0
  0
LINE
  5
88
330
75
100
AcDbEntity
  8
EBENE_1
100
AcDbLine
 10
374.9034285714
 20
92.1579706949
 30
0.0
 11
362.9034285714
 21
92.1579706949
 31
0.0
  0
LINE
  5
89
330
75
100
AcDbEntity
  8
EBENE_1
100
AcDbLine
 10
374.9034285714
 20
117.5579706949
 30
0.0
 11
362.9034285714
 21
117.5579706949
 31
0.0
  0
LINE
  5
8A
330
75
100
AcDbEntity
  8
EBENE_1
100
AcDbLine
 10
374.9034285714
 20
142.9579706949
 30
0.0
 11
362.9034285714
 21
142.9579706949
 31
0.0
  0
LINE
  5
8B
330
75
100
AcDbEntity
  8
EBENE_1
100
AcDbLine
 10
374.9034285714
 20
168.3579706949
 30
0.0
 11
362.9034285714
 21
168.3579706949
 31
0.0
  0
INSERT
  5
98
330
75
100
AcDbEntity
  8
EBENE_1
100
AcDbBlockReference
  2
SW_BLOCK_DIMENSION_0
 10
397.2096946378
 20
38.9914197296
 30
0.0
  0
INSERT
  5
A0
330
75
100
AcDbEntity
  8
EBENE_1
100
AcDbBlockReference
  2
SW_BLOCK_DIMENSION_1
 10
397.2096946378
 20
48.9914197296
 30
0.0
  0
INSERT
  5
A8
330
75
100
AcDbEntity
  8
EBENE_1
100
AcDbBlockReference
  2
SW_BLOCK_DIMENSION_2
 10
397.2096946378
 20
58.9914197296
 30
0.0
  0
INSERT
  5
B0
330
75
100
AcDbEntity
  8
EBENE_1
100
AcDbBlockReference
  2
SW_BLOCK_DIMENSION_3
 10
397.2096946378
 20
68.9914197296
 30
0.0
  0
INSERT
  5
B8
330
75
100
AcDbEntity
  8
EBENE_1
100
AcDbBlockReference
  2
SW_BLOCK_DIMENSION_4
 10
397.2096946378
 20
78.9914197296
 30
0.0
  0
INSERT
  5
C0
330
75
100
AcDbEntity
  8
EBENE_1
100
AcDbBlockReference
  2
SW_BLOCK_DIMENSION_5
 10
397.2096946378
 20
88.9914197296
 30
0.0
  0
INSERT
  5
C8
330
75
100
AcDbEntity
  8
EBENE_1
100
AcDbBlockReference
  2
SW_BLOCK_DIMENSION_6
 10
397.2096946378
 20
98.9914197296
 30
0.0
  0
INSERT
  5
D0
330
75
100
AcDbEntity
  8
EBENE_1
100
AcDbBlockReference
  2
SW_BLOCK_DIMENSION_7
 10
397.2096946378
 20
108.9914197296
 30
0.0
  0
INSERT
  5
D8
330
75
100
AcDbEntity
  8
EBENE_1
100
AcDbBlockReference
  2
SW_BLOCK_DIMENSION_8
 10
397.2096946378
 20
118.9914197296
 30
0.0
  0
INSERT
  5
E0
330
75
100
AcDbEntity
  8
EBENE_1
100
AcDbBlockReference
  2
SW_BLOCK_DIMENSION_9
 10
397.2096946378
 20
128.9914197296
 30
0.0
  0
INSERT
  5
E8
330
75
100
AcDbEntity
  8
EBENE_1
100
AcDbBlockReference
  2
SW_BLOCK_DIMENSION_10
 10
397.2096946378
 20
138.9914197296
 30
0.0
  0
INSERT
  5
F0
330
75
100
AcDbEntity
  8
EBENE_1
100
AcDbBlockReference
  2
SW_BLOCK_DIMENSION_11
 10
397.2096946378
 20
148.9914197296
 30
0.0
  0
INSERT
  5
F8
330
75
100
AcDbEntity
  8
EBENE_1
100
AcDbBlockReference
  2
SW_BLOCK_DIMENSION_12
 10
397.2096946378
 20
158.9914197296
 30
0.0
  0
INSERT
  5
100
330
75
100
AcDbEntity
  8
EBENE_1
100
AcDbBlockReference
  2
SW_BLOCK_DIMENSION_13
 10
397.2096946378
 20
168.9914197296
 30
0.0
  0
INSERT
  5
110
330
75
100
AcDbEntity
  8
EBENE_1
100
AcDbBlockReference
  2
SW_BLOCK_DIMENSION_14
 10
337.2987953614
 20
36.1691980072
 30
0.0
  0
INSERT
  5
121
330
75
100
AcDbEntity
  8
EBENE_1
100
AcDbBlockReference
  2
SW_BLOCK_DIMENSION_15
 10
337.2987953614
 20
61.5691980072
 30
0.0
  0
INSERT
  5
132
330
75
100
AcDbEntity
  8
EBENE_1
100
AcDbBlockReference
  2
SW_BLOCK_DIMENSION_16
 10
337.2987953614
 20
86.9691980072
 30
0.0
  0
INSERT
  5
143
330
75
100
AcDbEntity
  8
EBENE_1
100
AcDbBlockReference
  2
SW_BLOCK_DIMENSION_17
 10
337.2987953614
 20
112.3691980072
 30
0.0
  0
INSERT
  5
154
330
75
100
AcDbEntity
  8
EBENE_1
100
AcDbBlockReference
  2
SW_BLOCK_DIMENSION_18
 10
336.8284243759
 20
137.7691980072
 30
0.0
  0
INSERT
  5
165
330
75
100
AcDbEntity
  8
EBENE_1
100
AcDbBlockReference
  2
SW_BLOCK_DIMENSION_19
 10
337.2987953614
 20
163.1691980072
 30
0.0
  0
INSERT
  5
16B
330
75
100
AcDbEntity
  8
EBENE_1
 62
   179
100
AcDbBlockReference
  2
SW_NOTE_0
 10
337.5586028241
 20
28.8175207347
 30
0.0
  0
MTEXT
  5
16C
330
75
100
AcDbEntity
  8
EBENE_1
100
AcDbMText
 10
393.160738319
 20
33.5924424874
 30
0.0
 40
3.7041666667
 41
0.0
 71
     1
 72
     1
  1
mm
  7
SLDTEXTSTYLE0
 73
     1
 44
1.0
  0
ENDBLK
  5
77
330
75
100
AcDbEntity
  8
0
100
AcDbBlockEnd
  0
BLOCK
  5
8D
330
8C
100
AcDbEntity
  8
0
100
AcDbBlockBegin
  2
SW_BLOCK_DIMENSION_0
 70
     0
 10
0.0
 20
0.0
 30
0.0
  3
SW_BLOCK_DIMENSION_0
  1

  0
INSERT
  5
94
330
8C
100
AcDbEntity
  8
EBENE_1
 62
     0
100
AcDbBlockReference
  2
_ORIGIN
 10
-1.5805038061
 20
2.3665509652
 30
0.0
 41
0.9483022837
 42
0.9483022837
 50
0.0
  0
LINE
  5
95
330
8C
100
AcDbEntity
  8
EBENE_1
 62
     0
100
AcDbLine
 10
-6.5262660664
 20
2.3665509652
 30
0.0
 11
0.0
 21
2.3665509652
 31
0.0
  0
MTEXT
  5
97
330
8C
100
AcDbEntity
  8
EBENE_1
 62
     0
100
AcDbMText
 10
0.0
 20
4.0927900738
 30
0.0
 40
3.175
 41
0.0
 71
     1
 72
     1
  1
0
  7
SLDTEXTSTYLE0
 73
     1
 44
1.0
  0
ENDBLK
  5
8E
330
8C
100
AcDbEntity
  8
0
100
AcDbBlockEnd
  0
BLOCK
  5
90
330
8F
100
AcDbEntity
  8
0
100
AcDbBlockBegin
  2
_ORIGIN
 70
     0
 10
0.0
 20
0.0
 30
0.0
  3
_ORIGIN
  1

  0
CIRCLE
  5
92
330
8F
100
AcDbEntity
  8
0
  6
ByBlock
 62
     0
370
    -2
100
AcDbCircle
 10
0.0
 20
0.0
 30
0.0
 40
0.5
  0
LINE
  5
93
330
8F
100
AcDbEntity
  8
0
  6
ByBlock
 62
     0
370
    -2
100
AcDbLine
 10
0.0
 20
0.0
 30
0.0
 11
-1.0
 21
0.0
 31
0.0
  0
ENDBLK
  5
91
330
8F
100
AcDbEntity
  8
0
100
AcDbBlockEnd
  0
BLOCK
  5
9A
330
99
100
AcDbEntity
  8
0
100
AcDbBlockBegin
  2
SW_BLOCK_DIMENSION_1
 70
     0
 10
0.0
 20
0.0
 30
0.0
  3
SW_BLOCK_DIMENSION_1
  1

  0
SOLID
  5
9C
330
99
100
AcDbEntity
  8
EBENE_1
 62
     0
100
AcDbTrace
 10
-1.5805038061
 20
2.3665509652
 30
0.0
 11
-2.0546549479
 21
-0.7154314566
 31
0.0
 12
-1.1063526643
 22
-0.7154314566
 32
0.0
 13
-1.1063526643
 23
-0.7154314566
 33
0.0
  0
LINE
  5
9D
330
99
100
AcDbEntity
  8
EBENE_1
 62
     0
100
AcDbLine
 10
-10.3062660664
 20
2.3665509652
 30
0.0
 11
0.0
 21
2.3665509652
 31
0.0
  0
LINE
  5
9E
330
99
100
AcDbEntity
  8
EBENE_1
 62
     0
100
AcDbLine
 10
-1.5805038061
 20
-7.6334490348
 30
0.0
 11
-1.5805038061
 21
2.3665509652
 31
0.0
  0
MTEXT
  5
9F
330
99
100
AcDbEntity
  8
EBENE_1
 62
     0
100
AcDbMText
 10
0.0
 20
4.0927900738
 30
0.0
 40
3.175
 41
0.0
 71
     1
 72
     1
  1
10
  7
SLDTEXTSTYLE0
 73
     1
 44
1.0
  0
ENDBLK
  5
9B
330
99
100
AcDbEntity
  8
0
100
AcDbBlockEnd
  0
BLOCK
  5
A2
330
A1
100
AcDbEntity
  8
0
100
AcDbBlockBegin
  2
SW_BLOCK_DIMENSION_2
 70
     0
 10
0.0
 20
0.0
 30
0.0
  3
SW_BLOCK_DIMENSION_2
  1

  0
SOLID
  5
A4
330
A1
100
AcDbEntity
  8
EBENE_1
 62
     0
100
AcDbTrace
 10
-1.5805038061
 20
2.3665509652
 30
0.0
 11
-2.0546549479
 21
-0.7154314566
 31
0.0
 12
-1.1063526643
 22
-0.7154314566
 32
0.0
 13
-1.1063526643
 23
-0.7154314566
 33
0.0
  0
LINE
  5
A5
330
A1
100
AcDbEntity
  8
EBENE_1
 62
     0
100
AcDbLine
 10
-10.3062660664
 20
2.3665509652
 30
0.0
 11
0.0
 21
2.3665509652
 31
0.0
  0
LINE
  5
A6
330
A1
100
AcDbEntity
  8
EBENE_1
 62
     0
100
AcDbLine
 10
-1.5805038061
 20
-7.6334490348
 30
0.0
 11
-1.5805038061
 21
2.3665509652
 31
0.0
  0
MTEXT
  5
A7
330
A1
100
AcDbEntity
  8
EBENE_1
 62
     0
100
AcDbMText
 10
0.0
 20
4.0927900738
 30
0.0
 40
3.175
 41
0.0
 71
     1
 72
     1
  1
20
  7
SLDTEXTSTYLE0
 73
     1
 44
1.0
  0
ENDBLK
  5
A3
330
A1
100
AcDbEntity
  8
0
100
AcDbBlockEnd
  0
BLOCK
  5
AA
330
A9
100
AcDbEntity
  8
0
100
AcDbBlockBegin
  2
SW_BLOCK_DIMENSION_3
 70
     0
 10
0.0
 20
0.0
 30
0.0
  3
SW_BLOCK_DIMENSION_3
  1

  0
SOLID
  5
AC
330
A9
100
AcDbEntity
  8
EBENE_1
 62
     0
100
AcDbTrace
 10
-1.5805038061
 20
2.3665509652
 30
0.0
 11
-2.0546549479
 21
-0.7154314566
 31
0.0
 12
-1.1063526643
 22
-0.7154314566
 32
0.0
 13
-1.1063526643
 23
-0.7154314566
 33
0.0
  0
LINE
  5
AD
330
A9
100
AcDbEntity
  8
EBENE_1
 62
     0
100
AcDbLine
 10
-10.3062660664
 20
2.3665509652
 30
0.0
 11
0.0
 21
2.3665509652
 31
0.0
  0
LINE
  5
AE
330
A9
100
AcDbEntity
  8
EBENE_1
 62
     0
100
AcDbLine
 10
-1.5805038061
 20
-7.6334490348
 30
0.0
 11
-1.5805038061
 21
2.3665509652
 31
0.0
  0
MTEXT
  5
AF
330
A9
100
AcDbEntity
  8
EBENE_1
 62
     0
100
AcDbMText
 10
0.0
 20
4.0927900738
 30
0.0
 40
3.175
 41
0.0
 71
     1
 72
     1
  1
30
  7
SLDTEXTSTYLE0
 73
     1
 44
1.0
  0
ENDBLK
  5
AB
330
A9
100
AcDbEntity
  8
0
100
AcDbBlockEnd
  0
BLOCK
  5
B2
330
B1
100
AcDbEntity
  8
0
100
AcDbBlockBegin
  2
SW_BLOCK_DIMENSION_4
 70
     0
 10
0.0
 20
0.0
 30
0.0
  3
SW_BLOCK_DIMENSION_4
  1

  0
SOLID
  5
B4
330
B1
100
AcDbEntity
  8
EBENE_1
 62
     0
100
AcDbTrace
 10
-1.5805038061
 20
2.3665509652
 30
0.0
 11
-2.0546549479
 21
-0.7154314566
 31
0.0
 12
-1.1063526643
 22
-0.7154314566
 32
0.0
 13
-1.1063526643
 23
-0.7154314566
 33
0.0
  0
LINE
  5
B5
330
B1
100
AcDbEntity
  8
EBENE_1
 62
     0
100
AcDbLine
 10
-10.3062660664
 20
2.3665509652
 30
0.0
 11
0.0
 21
2.3665509652
 31
0.0
  0
LINE
  5
B6
330
B1
100
AcDbEntity
  8
EBENE_1
 62
     0
100
AcDbLine
 10
-1.5805038061
 20
-7.6334490348
 30
0.0
 11
-1.5805038061
 21
2.3665509652
 31
0.0
  0
MTEXT
  5
B7
330
B1
100
AcDbEntity
  8
EBENE_1
 62
     0
100
AcDbMText
 10
0.0
 20
4.0927900738
 30
0.0
 40
3.175
 41
0.0
 71
     1
 72
     1
  1
40
  7
SLDTEXTSTYLE0
 73
     1
 44
1.0
  0
ENDBLK
  5
B3
330
B1
100
AcDbEntity
  8
0
100
AcDbBlockEnd
  0
BLOCK
  5
BA
330
B9
100
AcDbEntity
  8
0
100
AcDbBlockBegin
  2
SW_BLOCK_DIMENSION_5
 70
     0
 10
0.0
 20
0.0
 30
0.0
  3
SW_BLOCK_DIMENSION_5
  1

  0
SOLID
  5
BC
330
B9
100
AcDbEntity
  8
EBENE_1
 62
     0
100
AcDbTrace
 10
-1.5805038061
 20
2.3665509652
 30
0.0
 11
-2.0546549479
 21
-0.7154314566
 31
0.0
 12
-1.1063526643
 22
-0.7154314566
 32
0.0
 13
-1.1063526643
 23
-0.7154314566
 33
0.0
  0
LINE
  5
BD
330
B9
100
AcDbEntity
  8
EBENE_1
 62
     0
100
AcDbLine
 10
-10.3062660664
 20
2.3665509652
 30
0.0
 11
0.0
 21
2.3665509652
 31
0.0
  0
LINE
  5
BE
330
B9
100
AcDbEntity
  8
EBENE_1
 62
     0
100
AcDbLine
 10
-1.5805038061
 20
-7.6334490348
 30
0.0
 11
-1.5805038061
 21
2.3665509652
 31
0.0
  0
MTEXT
  5
BF
330
B9
100
AcDbEntity
  8
EBENE_1
 62
     0
100
AcDbMText
 10
0.0
 20
4.0927900738
 30
0.0
 40
3.175
 41
0.0
 71
     1
 72
     1
  1
50
  7
SLDTEXTSTYLE0
 73
     1
 44
1.0
  0
ENDBLK
  5
BB
330
B9
100
AcDbEntity
  8
0
100
AcDbBlockEnd
  0
BLOCK
  5
C2
330
C1
100
AcDbEntity
  8
0
100
AcDbBlockBegin
  2
SW_BLOCK_DIMENSION_6
 70
     0
 10
0.0
 20
0.0
 30
0.0
  3
SW_BLOCK_DIMENSION_6
  1

  0
SOLID
  5
C4
330
C1
100
AcDbEntity
  8
EBENE_1
 62
     0
100
AcDbTrace
 10
-1.5805038061
 20
2.3665509652
 30
0.0
 11
-2.0546549479
 21
-0.7154314566
 31
0.0
 12
-1.1063526643
 22
-0.7154314566
 32
0.0
 13
-1.1063526643
 23
-0.7154314566
 33
0.0
  0
LINE
  5
C5
330
C1
100
AcDbEntity
  8
EBENE_1
 62
     0
100
AcDbLine
 10
-10.3062660664
 20
2.3665509652
 30
0.0
 11
0.0
 21
2.3665509652
 31
0.0
  0
LINE
  5
C6
330
C1
100
AcDbEntity
  8
EBENE_1
 62
     0
100
AcDbLine
 10
-1.5805038061
 20
-7.6334490348
 30
0.0
 11
-1.5805038061
 21
2.3665509652
 31
0.0
  0
MTEXT
  5
C7
330
C1
100
AcDbEntity
  8
EBENE_1
 62
     0
100
AcDbMText
 10
0.0
 20
4.0927900738
 30
0.0
 40
3.175
 41
0.0
 71
     1
 72
     1
  1
60
  7
SLDTEXTSTYLE0
 73
     1
 44
1.0
  0
ENDBLK
  5
C3
330
C1
100
AcDbEntity
  8
0
100
AcDbBlockEnd
  0
BLOCK
  5
CA
330
C9
100
AcDbEntity
  8
0
100
AcDbBlockBegin
  2
SW_BLOCK_DIMENSION_7
 70
     0
 10
0.0
 20
0.0
 30
0.0
  3
SW_BLOCK_DIMENSION_7
  1

  0
SOLID
  5
CC
330
C9
100
AcDbEntity
  8
EBENE_1
 62
     0
100
AcDbTrace
 10
-1.5805038061
 20
2.3665509652
 30
0.0
 11
-2.0546549479
 21
-0.7154314566
 31
0.0
 12
-1.1063526643
 22
-0.7154314566
 32
0.0
 13
-1.1063526643
 23
-0.7154314566
 33
0.0
  0
LINE
  5
CD
330
C9
100
AcDbEntity
  8
EBENE_1
 62
     0
100
AcDbLine
 10
-10.3062660664
 20
2.3665509652
 30
0.0
 11
0.0
 21
2.3665509652
 31
0.0
  0
LINE
  5
CE
330
C9
100
AcDbEntity
  8
EBENE_1
 62
     0
100
AcDbLine
 10
-1.5805038061
 20
-7.6334490348
 30
0.0
 11
-1.5805038061
 21
2.3665509652
 31
0.0
  0
MTEXT
  5
CF
330
C9
100
AcDbEntity
  8
EBENE_1
 62
     0
100
AcDbMText
 10
0.0
 20
4.0927900738
 30
0.0
 40
3.175
 41
0.0
 71
     1
 72
     1
  1
70
  7
SLDTEXTSTYLE0
 73
     1
 44
1.0
  0
ENDBLK
  5
CB
330
C9
100
AcDbEntity
  8
0
100
AcDbBlockEnd
  0
BLOCK
  5
D2
330
D1
100
AcDbEntity
  8
0
100
AcDbBlockBegin
  2
SW_BLOCK_DIMENSION_8
 70
     0
 10
0.0
 20
0.0
 30
0.0
  3
SW_BLOCK_DIMENSION_8
  1

  0
SOLID
  5
D4
330
D1
100
AcDbEntity
  8
EBENE_1
 62
     0
100
AcDbTrace
 10
-1.5805038061
 20
2.3665509652
 30
0.0
 11
-2.0546549479
 21
-0.7154314566
 31
0.0
 12
-1.1063526643
 22
-0.7154314566
 32
0.0
 13
-1.1063526643
 23
-0.7154314566
 33
0.0
  0
LINE
  5
D5
330
D1
100
AcDbEntity
  8
EBENE_1
 62
     0
100
AcDbLine
 10
-10.3062660664
 20
2.3665509652
 30
0.0
 11
0.0
 21
2.3665509652
 31
0.0
  0
LINE
  5
D6
330
D1
100
AcDbEntity
  8
EBENE_1
 62
     0
100
AcDbLine
 10
-1.5805038061
 20
-7.6334490348
 30
0.0
 11
-1.5805038061
 21
2.3665509652
 31
0.0
  0
MTEXT
  5
D7
330
D1
100
AcDbEntity
  8
EBENE_1
 62
     0
100
AcDbMText
 10
0.0
 20
4.0927900738
 30
0.0
 40
3.175
 41
0.0
 71
     1
 72
     1
  1
80
  7
SLDTEXTSTYLE0
 73
     1
 44
1.0
  0
ENDBLK
  5
D3
330
D1
100
AcDbEntity
  8
0
100
AcDbBlockEnd
  0
BLOCK
  5
DA
330
D9
100
AcDbEntity
  8
0
100
AcDbBlockBegin
  2
SW_BLOCK_DIMENSION_9
 70
     0
 10
0.0
 20
0.0
 30
0.0
  3
SW_BLOCK_DIMENSION_9
  1

  0
SOLID
  5
DC
330
D9
100
AcDbEntity
  8
EBENE_1
 62
     0
100
AcDbTrace
 10
-1.5805038061
 20
2.3665509652
 30
0.0
 11
-2.0546549479
 21
-0.7154314566
 31
0.0
 12
-1.1063526643
 22
-0.7154314566
 32
0.0
 13
-1.1063526643
 23
-0.7154314566
 33
0.0
  0
LINE
  5
DD
330
D9
100
AcDbEntity
  8
EBENE_1
 62
     0
100
AcDbLine
 10
-10.3062660664
 20
2.3665509652
 30
0.0
 11
0.0
 21
2.3665509652
 31
0.0
  0
LINE
  5
DE
330
D9
100
AcDbEntity
  8
EBENE_1
 62
     0
100
AcDbLine
 10
-1.5805038061
 20
-7.6334490348
 30
0.0
 11
-1.5805038061
 21
2.3665509652
 31
0.0
  0
MTEXT
  5
DF
330
D9
100
AcDbEntity
  8
EBENE_1
 62
     0
100
AcDbMText
 10
0.0
 20
4.0927900738
 30
0.0
 40
3.175
 41
0.0
 71
     1
 72
     1
  1
90
  7
SLDTEXTSTYLE0
 73
     1
 44
1.0
  0
ENDBLK
  5
DB
330
D9
100
AcDbEntity
  8
0
100
AcDbBlockEnd
  0
BLOCK
  5
E2
330
E1
100
AcDbEntity
  8
0
100
AcDbBlockBegin
  2
SW_BLOCK_DIMENSION_10
 70
     0
 10
0.0
 20
0.0
 30
0.0
  3
SW_BLOCK_DIMENSION_10
  1

  0
SOLID
  5
E4
330
E1
100
AcDbEntity
  8
EBENE_1
 62
     0
100
AcDbTrace
 10
-1.5805038061
 20
2.3665509652
 30
0.0
 11
-2.0546549479
 21
-0.7154314566
 31
0.0
 12
-1.1063526643
 22
-0.7154314566
 32
0.0
 13
-1.1063526643
 23
-0.7154314566
 33
0.0
  0
LINE
  5
E5
330
E1
100
AcDbEntity
  8
EBENE_1
 62
     0
100
AcDbLine
 10
-10.3062660664
 20
2.3665509652
 30
0.0
 11
0.0
 21
2.3665509652
 31
0.0
  0
LINE
  5
E6
330
E1
100
AcDbEntity
  8
EBENE_1
 62
     0
100
AcDbLine
 10
-1.5805038061
 20
-7.6334490348
 30
0.0
 11
-1.5805038061
 21
2.3665509652
 31
0.0
  0
MTEXT
  5
E7
330
E1
100
AcDbEntity
  8
EBENE_1
 62
     0
100
AcDbMText
 10
0.0
 20
4.0927900738
 30
0.0
 40
3.175
 41
0.0
 71
     1
 72
     1
  1
100
  7
SLDTEXTSTYLE0
 73
     1
 44
1.0
  0
ENDBLK
  5
E3
330
E1
100
AcDbEntity
  8
0
100
AcDbBlockEnd
  0
BLOCK
  5
EA
330
E9
100
AcDbEntity
  8
0
100
AcDbBlockBegin
  2
SW_BLOCK_DIMENSION_11
 70
     0
 10
0.0
 20
0.0
 30
0.0
  3
SW_BLOCK_DIMENSION_11
  1

  0
SOLID
  5
EC
330
E9
100
AcDbEntity
  8
EBENE_1
 62
     0
100
AcDbTrace
 10
-1.5805038061
 20
2.3665509652
 30
0.0
 11
-2.0546549479
 21
-0.7154314566
 31
0.0
 12
-1.1063526643
 22
-0.7154314566
 32
0.0
 13
-1.1063526643
 23
-0.7154314566
 33
0.0
  0
LINE
  5
ED
330
E9
100
AcDbEntity
  8
EBENE_1
 62
     0
100
AcDbLine
 10
-10.3062660664
 20
2.3665509652
 30
0.0
 11
0.0
 21
2.3665509652
 31
0.0
  0
LINE
  5
EE
330
E9
100
AcDbEntity
  8
EBENE_1
 62
     0
100
AcDbLine
 10
-1.5805038061
 20
-7.6334490348
 30
0.0
 11
-1.5805038061
 21
2.3665509652
 31
0.0
  0
MTEXT
  5
EF
330
E9
100
AcDbEntity
  8
EBENE_1
 62
     0
100
AcDbMText
 10
0.0
 20
4.0927900738
 30
0.0
 40
3.175
 41
0.0
 71
     1
 72
     1
  1
110
  7
SLDTEXTSTYLE0
 73
     1
 44
1.0
  0
ENDBLK
  5
EB
330
E9
100
AcDbEntity
  8
0
100
AcDbBlockEnd
  0
BLOCK
  5
F2
330
F1
100
AcDbEntity
  8
0
100
AcDbBlockBegin
  2
SW_BLOCK_DIMENSION_12
 70
     0
 10
0.0
 20
0.0
 30
0.0
  3
SW_BLOCK_DIMENSION_12
  1

  0
SOLID
  5
F4
330
F1
100
AcDbEntity
  8
EBENE_1
 62
     0
100
AcDbTrace
 10
-1.5805038061
 20
2.3665509652
 30
0.0
 11
-2.0546549479
 21
-0.7154314566
 31
0.0
 12
-1.1063526643
 22
-0.7154314566
 32
0.0
 13
-1.1063526643
 23
-0.7154314566
 33
0.0
  0
LINE
  5
F5
330
F1
100
AcDbEntity
  8
EBENE_1
 62
     0
100
AcDbLine
 10
-10.3062660664
 20
2.3665509652
 30
0.0
 11
0.0
 21
2.3665509652
 31
0.0
  0
LINE
  5
F6
330
F1
100
AcDbEntity
  8
EBENE_1
 62
     0
100
AcDbLine
 10
-1.5805038061
 20
-7.6334490348
 30
0.0
 11
-1.5805038061
 21
2.3665509652
 31
0.0
  0
MTEXT
  5
F7
330
F1
100
AcDbEntity
  8
EBENE_1
 62
     0
100
AcDbMText
 10
0.0
 20
4.0927900738
 30
0.0
 40
3.175
 41
0.0
 71
     1
 72
     1
  1
120
  7
SLDTEXTSTYLE0
 73
     1
 44
1.0
  0
ENDBLK
  5
F3
330
F1
100
AcDbEntity
  8
0
100
AcDbBlockEnd
  0
BLOCK
  5
FA
330
F9
100
AcDbEntity
  8
0
100
AcDbBlockBegin
  2
SW_BLOCK_DIMENSION_13
 70
     0
 10
0.0
 20
0.0
 30
0.0
  3
SW_BLOCK_DIMENSION_13
  1

  0
SOLID
  5
FC
330
F9
100
AcDbEntity
  8
EBENE_1
 62
     0
100
AcDbTrace
 10
-1.5805038061
 20
2.3665509652
 30
0.0
 11
-2.0546549479
 21
-0.7154314566
 31
0.0
 12
-1.1063526643
 22
-0.7154314566
 32
0.0
 13
-1.1063526643
 23
-0.7154314566
 33
0.0
  0
LINE
  5
FD
330
F9
100
AcDbEntity
  8
EBENE_1
 62
     0
100
AcDbLine
 10
-10.3062660664
 20
2.3665509652
 30
0.0
 11
0.0
 21
2.3665509652
 31
0.0
  0
LINE
  5
FE
330
F9
100
AcDbEntity
  8
EBENE_1
 62
     0
100
AcDbLine
 10
-1.5805038061
 20
-7.6334490348
 30
0.0
 11
-1.5805038061
 21
2.3665509652
 31
0.0
  0
MTEXT
  5
FF
330
F9
100
AcDbEntity
  8
EBENE_1
 62
     0
100
AcDbMText
 10
0.0
 20
4.0927900738
 30
0.0
 40
3.175
 41
0.0
 71
     1
 72
     1
  1
130
  7
SLDTEXTSTYLE0
 73
     1
 44
1.0
  0
ENDBLK
  5
FB
330
F9
100
AcDbEntity
  8
0
100
AcDbBlockEnd
  0
BLOCK
  5
102
330
101
100
AcDbEntity
  8
0
100
AcDbBlockBegin
  2
SW_BLOCK_DIMENSION_14
 70
     0
 10
0.0
 20
0.0
 30
0.0
  3
SW_BLOCK_DIMENSION_14
  1

  0
INSERT
  5
104
330
101
100
AcDbEntity
  8
EBENE_1
 62
     0
100
AcDbBlockReference
  2
_ORIGIN
 10
16.3971707594
 20
5.1887726877
 30
0.0
 41
0.9483022837
 42
0.9483022837
 50
0.0
  0
LINE
  5
105
330
101
100
AcDbEntity
  8
EBENE_1
 62
     0
100
AcDbLine
 10
3.2925925916
 20
9.671990294
 30
0.0
 11
2.2342592711
 21
9.671990294
 31
0.0
  0
LINE
  5
106
330
101
100
AcDbEntity
  8
EBENE_1
 62
     0
100
AcDbLine
 10
2.2342592711
 20
9.671990294
 30
0.0
 11
2.2342592711
 21
4.9388883635
 31
0.0
  0
LINE
  5
107
330
101
100
AcDbEntity
  8
EBENE_1
 62
     0
100
AcDbLine
 10
2.2342592711
 20
4.9388883635
 30
0.0
 11
3.2925925916
 21
4.9388883635
 31
0.0
  0
LINE
  5
108
330
101
100
AcDbEntity
  8
EBENE_1
 62
     0
100
AcDbLine
 10
11.5240741288
 20
9.671990294
 30
0.0
 11
12.5824074494
 21
9.671990294
 31
0.0
  0
LINE
  5
109
330
101
100
AcDbEntity
  8
EBENE_1
 62
     0
100
AcDbLine
 10
12.5824074494
 20
9.671990294
 30
0.0
 11
12.5824074494
 21
4.9388883635
 31
0.0
  0
LINE
  5
10A
330
101
100
AcDbEntity
  8
EBENE_1
 62
     0
100
AcDbLine
 10
12.5824074494
 20
4.9388883635
 30
0.0
 11
11.5240741288
 21
4.9388883635
 31
0.0
  0
LINE
  5
10B
330
101
100
AcDbEntity
  8
EBENE_1
 62
     0
100
AcDbLine
 10
24.38463321
 20
5.1887726877
 30
0.0
 11
14.8166669533
 21
5.1887726877
 31
0.0
  0
MTEXT
  5
10C
330
101
100
AcDbEntity
  8
EBENE_1
 62
     0
100
AcDbMText
 10
1.190625
 20
4.0927900738
 30
0.0
 40
3.175
 41
0.0
 71
     1
 72
     1
  1

  7
SLDTEXTSTYLE0
 73
     1
 44
1.0
  0
MTEXT
  5
10D
330
101
100
AcDbEntity
  8
EBENE_1
 62
     0
100
AcDbMText
 10
3.2925925916
 20
9.0316784373
 30
0.0
 40
3.175
 41
0.0
 71
     1
 72
     1
  1
0,00
  7
SLDTEXTSTYLE0
 73
     1
 44
1.0
  0
MTEXT
  5
10E
330
101
100
AcDbEntity
  8
EBENE_1
 62
     0
100
AcDbMText
 10
6.2324074097
 20
4.0927898409
 30
0.0
 40
3.175
 41
0.0
 71
     1
 72
     1
  1
0
  7
SLDTEXTSTYLE0
 73
     1
 44
1.0
  0
MTEXT
  5
10F
330
101
100
AcDbEntity
  8
EBENE_1
 62
     0
100
AcDbMText
 10
14.8313658863
 20
4.0927900738
 30
0.0
 40
3.175
 41
0.0
 71
     1
 72
     1
  1

  7
SLDTEXTSTYLE0
 73
     1
 44
1.0
  0
ENDBLK
  5
103
330
101
100
AcDbEntity
  8
0
100
AcDbBlockEnd
  0
BLOCK
  5
112
330
111
100
AcDbEntity
  8
0
100
AcDbBlockBegin
  2
SW_BLOCK_DIMENSION_15
 70
     0
 10
0.0
 20
0.0
 30
0.0
  3
SW_BLOCK_DIMENSION_15
  1

  0
SOLID
  5
114
330
111
100
AcDbEntity
  8
EBENE_1
 62
     0
100
AcDbTrace
 10
16.3971707594
 20
5.1887726877
 30
0.0
 11
15.9230196175
 21
2.1067902658
 31
0.0
 12
16.8713219012
 22
2.1067902658
 32
0.0
 13
16.8713219012
 23
2.1067902658
 33
0.0
  0
LINE
  5
115
330
111
100
AcDbEntity
  8
EBENE_1
 62
     0
100
AcDbLine
 10
3.2925925916
 20
9.671990294
 30
0.0
 11
2.2342592711
 21
9.671990294
 31
0.0
  0
LINE
  5
116
330
111
100
AcDbEntity
  8
EBENE_1
 62
     0
100
AcDbLine
 10
2.2342592711
 20
9.671990294
 30
0.0
 11
2.2342592711
 21
4.9388883635
 31
0.0
  0
LINE
  5
117
330
111
100
AcDbEntity
  8
EBENE_1
 62
     0
100
AcDbLine
 10
2.2342592711
 20
4.9388883635
 30
0.0
 11
3.2925925916
 21
4.9388883635
 31
0.0
  0
LINE
  5
118
330
111
100
AcDbEntity
  8
EBENE_1
 62
     0
100
AcDbLine
 10
11.5240741288
 20
9.671990294
 30
0.0
 11
12.5824074494
 21
9.671990294
 31
0.0
  0
LINE
  5
119
330
111
100
AcDbEntity
  8
EBENE_1
 62
     0
100
AcDbLine
 10
12.5824074494
 20
9.671990294
 30
0.0
 11
12.5824074494
 21
4.9388883635
 31
0.0
  0
LINE
  5
11A
330
111
100
AcDbEntity
  8
EBENE_1
 62
     0
100
AcDbLine
 10
12.5824074494
 20
4.9388883635
 30
0.0
 11
11.5240741288
 21
4.9388883635
 31
0.0
  0
LINE
  5
11B
330
111
100
AcDbEntity
  8
EBENE_1
 62
     0
100
AcDbLine
 10
23.60463321
 20
5.1887726877
 30
0.0
 11
14.8166669533
 21
5.1887726877
 31
0.0
  0
LINE
  5
11C
330
111
100
AcDbEntity
  8
EBENE_1
 62
     0
100
AcDbLine
 10
16.3971707594
 20
-20.2112273123
 30
0.0
 11
16.3971707594
 21
5.1887726877
 31
0.0
  0
MTEXT
  5
11D
330
111
100
AcDbEntity
  8
EBENE_1
 62
     0
100
AcDbMText
 10
1.190625
 20
4.0927900738
 30
0.0
 40
3.175
 41
0.0
 71
     1
 72
     1
  1

  7
SLDTEXTSTYLE0
 73
     1
 44
1.0
  0
MTEXT
  5
11E
330
111
100
AcDbEntity
  8
EBENE_1
 62
     0
100
AcDbMText
 10
3.2925925916
 20
9.0316784373
 30
0.0
 40
3.175
 41
0.0
 71
     1
 72
     1
  1
1,00
  7
SLDTEXTSTYLE0
 73
     1
 44
1.0
  0
MTEXT
  5
11F
330
111
100
AcDbEntity
  8
EBENE_1
 62
     0
100
AcDbMText
 10
2.1166665247
 20
4.0927898409
 30
0.0
 40
3.175
 41
0.0
 71
     1
 72
     1
  1
25,40
  7
SLDTEXTSTYLE0
 73
     1
 44
1.0
  0
MTEXT
  5
120
330
111
100
AcDbEntity
  8
EBENE_1
 62
     0
100
AcDbMText
 10
14.8313658863
 20
4.0927900738
 30
0.0
 40
3.175
 41
0.0
 71
     1
 72
     1
  1

  7
SLDTEXTSTYLE0
 73
     1
 44
1.0
  0
ENDBLK
  5
113
330
111
100
AcDbEntity
  8
0
100
AcDbBlockEnd
  0
BLOCK
  5
123
330
122
100
AcDbEntity
  8
0
100
AcDbBlockBegin
  2
SW_BLOCK_DIMENSION_16
 70
     0
 10
0.0
 20
0.0
 30
0.0
  3
SW_BLOCK_DIMENSION_16
  1

  0
SOLID
  5
125
330
122
100
AcDbEntity
  8
EBENE_1
 62
     0
100
AcDbTrace
 10
16.3971707594
 20
5.1887726877
 30
0.0
 11
15.9230196175
 21
2.1067902658
 31
0.0
 12
16.8713219012
 22
2.1067902658
 32
0.0
 13
16.8713219012
 23
2.1067902658
 33
0.0
  0
LINE
  5
126
330
122
100
AcDbEntity
  8
EBENE_1
 62
     0
100
AcDbLine
 10
3.2925925916
 20
9.671990294
 30
0.0
 11
2.2342592711
 21
9.671990294
 31
0.0
  0
LINE
  5
127
330
122
100
AcDbEntity
  8
EBENE_1
 62
     0
100
AcDbLine
 10
2.2342592711
 20
9.671990294
 30
0.0
 11
2.2342592711
 21
4.9388883635
 31
0.0
  0
LINE
  5
128
330
122
100
AcDbEntity
  8
EBENE_1
 62
     0
100
AcDbLine
 10
2.2342592711
 20
4.9388883635
 30
0.0
 11
3.2925925916
 21
4.9388883635
 31
0.0
  0
LINE
  5
129
330
122
100
AcDbEntity
  8
EBENE_1
 62
     0
100
AcDbLine
 10
11.5240741288
 20
9.671990294
 30
0.0
 11
12.5824074494
 21
9.671990294
 31
0.0
  0
LINE
  5
12A
330
122
100
AcDbEntity
  8
EBENE_1
 62
     0
100
AcDbLine
 10
12.5824074494
 20
9.671990294
 30
0.0
 11
12.5824074494
 21
4.9388883635
 31
0.0
  0
LINE
  5
12B
330
122
100
AcDbEntity
  8
EBENE_1
 62
     0
100
AcDbLine
 10
12.5824074494
 20
4.9388883635
 30
0.0
 11
11.5240741288
 21
4.9388883635
 31
0.0
  0
LINE
  5
12C
330
122
100
AcDbEntity
  8
EBENE_1
 62
     0
100
AcDbLine
 10
23.60463321
 20
5.1887726877
 30
0.0
 11
14.8166669533
 21
5.1887726877
 31
0.0
  0
LINE
  5
12D
330
122
100
AcDbEntity
  8
EBENE_1
 62
     0
100
AcDbLine
 10
16.3971707594
 20
-20.2112273123
 30
0.0
 11
16.3971707594
 21
5.1887726877
 31
0.0
  0
MTEXT
  5
12E
330
122
100
AcDbEntity
  8
EBENE_1
 62
     0
100
AcDbMText
 10
1.190625
 20
4.0927900738
 30
0.0
 40
3.175
 41
0.0
 71
     1
 72
     1
  1

  7
SLDTEXTSTYLE0
 73
     1
 44
1.0
  0
MTEXT
  5
12F
330
122
100
AcDbEntity
  8
EBENE_1
 62
     0
100
AcDbMText
 10
3.2925925916
 20
9.0316784373
 30
0.0
 40
3.175
 41
0.0
 71
     1
 72
     1
  1
2,00
  7
SLDTEXTSTYLE0
 73
     1
 44
1.0
  0
MTEXT
  5
130
330
122
100
AcDbEntity
  8
EBENE_1
 62
     0
100
AcDbMText
 10
2.1166665247
 20
4.0927898409
 30
0.0
 40
3.175
 41
0.0
 71
     1
 72
     1
  1
50,80
  7
SLDTEXTSTYLE0
 73
     1
 44
1.0
  0
MTEXT
  5
131
330
122
100
AcDbEntity
  8
EBENE_1
 62
     0
100
AcDbMText
 10
14.8313658863
 20
4.0927900738
 30
0.0
 40
3.175
 41
0.0
 71
     1
 72
     1
  1

  7
SLDTEXTSTYLE0
 73
     1
 44
1.0
  0
ENDBLK
  5
124
330
122
100
AcDbEntity
  8
0
100
AcDbBlockEnd
  0
BLOCK
  5
134
330
133
100
AcDbEntity
  8
0
100
AcDbBlockBegin
  2
SW_BLOCK_DIMENSION_17
 70
     0
 10
0.0
 20
0.0
 30
0.0
  3
SW_BLOCK_DIMENSION_17
  1

  0
SOLID
  5
136
330
133
100
AcDbEntity
  8
EBENE_1
 62
     0
100
AcDbTrace
 10
16.3971707594
 20
5.1887726877
 30
0.0
 11
15.9230196175
 21
2.1067902658
 31
0.0
 12
16.8713219012
 22
2.1067902658
 32
0.0
 13
16.8713219012
 23
2.1067902658
 33
0.0
  0
LINE
  5
137
330
133
100
AcDbEntity
  8
EBENE_1
 62
     0
100
AcDbLine
 10
3.2925925916
 20
9.671990294
 30
0.0
 11
2.2342592711
 21
9.671990294
 31
0.0
  0
LINE
  5
138
330
133
100
AcDbEntity
  8
EBENE_1
 62
     0
100
AcDbLine
 10
2.2342592711
 20
9.671990294
 30
0.0
 11
2.2342592711
 21
4.9388883635
 31
0.0
  0
LINE
  5
139
330
133
100
AcDbEntity
  8
EBENE_1
 62
     0
100
AcDbLine
 10
2.2342592711
 20
4.9388883635
 30
0.0
 11
3.2925925916
 21
4.9388883635
 31
0.0
  0
LINE
  5
13A
330
133
100
AcDbEntity
  8
EBENE_1
 62
     0
100
AcDbLine
 10
11.5240741288
 20
9.671990294
 30
0.0
 11
12.5824074494
 21
9.671990294
 31
0.0
  0
LINE
  5
13B
330
133
100
AcDbEntity
  8
EBENE_1
 62
     0
100
AcDbLine
 10
12.5824074494
 20
9.671990294
 30
0.0
 11
12.5824074494
 21
4.9388883635
 31
0.0
  0
LINE
  5
13C
330
133
100
AcDbEntity
  8
EBENE_1
 62
     0
100
AcDbLine
 10
12.5824074494
 20
4.9388883635
 30
0.0
 11
11.5240741288
 21
4.9388883635
 31
0.0
  0
LINE
  5
13D
330
133
100
AcDbEntity
  8
EBENE_1
 62
     0
100
AcDbLine
 10
23.60463321
 20
5.1887726877
 30
0.0
 11
14.8166669533
 21
5.1887726877
 31
0.0
  0
LINE
  5
13E
330
133
100
AcDbEntity
  8
EBENE_1
 62
     0
100
AcDbLine
 10
16.3971707594
 20
-20.2112273123
 30
0.0
 11
16.3971707594
 21
5.1887726877
 31
0.0
  0
MTEXT
  5
13F
330
133
100
AcDbEntity
  8
EBENE_1
 62
     0
100
AcDbMText
 10
1.190625
 20
4.0927900738
 30
0.0
 40
3.175
 41
0.0
 71
     1
 72
     1
  1

  7
SLDTEXTSTYLE0
 73
     1
 44
1.0
  0
MTEXT
  5
140
330
133
100
AcDbEntity
  8
EBENE_1
 62
     0
100
AcDbMText
 10
3.2925925916
 20
9.0316784373
 30
0.0
 40
3.175
 41
0.0
 71
     1
 72
     1
  1
3,00
  7
SLDTEXTSTYLE0
 73
     1
 44
1.0
  0
MTEXT
  5
141
330
133
100
AcDbEntity
  8
EBENE_1
 62
     0
100
AcDbMText
 10
2.1166665247
 20
4.0927898409
 30
0.0
 40
3.175
 41
0.0
 71
     1
 72
     1
  1
76,20
  7
SLDTEXTSTYLE0
 73
     1
 44
1.0
  0
MTEXT
  5
142
330
133
100
AcDbEntity
  8
EBENE_1
 62
     0
100
AcDbMText
 10
14.8313658863
 20
4.0927900738
 30
0.0
 40
3.175
 41
0.0
 71
     1
 72
     1
  1

  7
SLDTEXTSTYLE0
 73
     1
 44
1.0
  0
ENDBLK
  5
135
330
133
100
AcDbEntity
  8
0
100
AcDbBlockEnd
  0
BLOCK
  5
145
330
144
100
AcDbEntity
  8
0
100
AcDbBlockBegin
  2
SW_BLOCK_DIMENSION_18
 70
     0
 10
0.0
 20
0.0
 30
0.0
  3
SW_BLOCK_DIMENSION_18
  1

  0
SOLID
  5
147
330
144
100
AcDbEntity
  8
EBENE_1
 62
     0
100
AcDbTrace
 10
16.8675417449
 20
5.1887726877
 30
0.0
 11
16.3933906031
 21
2.1067902658
 31
0.0
 12
17.3416928868
 22
2.1067902658
 32
0.0
 13
17.3416928868
 23
2.1067902658
 33
0.0
  0
LINE
  5
148
330
144
100
AcDbEntity
  8
EBENE_1
 62
     0
100
AcDbLine
 10
3.5277780844
 20
9.671990294
 30
0.0
 11
2.4694447638
 21
9.671990294
 31
0.0
  0
LINE
  5
149
330
144
100
AcDbEntity
  8
EBENE_1
 62
     0
100
AcDbLine
 10
2.4694447638
 20
9.671990294
 30
0.0
 11
2.4694447638
 21
4.9388883635
 31
0.0
  0
LINE
  5
14A
330
144
100
AcDbEntity
  8
EBENE_1
 62
     0
100
AcDbLine
 10
2.4694447638
 20
4.9388883635
 30
0.0
 11
3.5277780844
 21
4.9388883635
 31
0.0
  0
LINE
  5
14B
330
144
100
AcDbEntity
  8
EBENE_1
 62
     0
100
AcDbLine
 10
11.7592596216
 20
9.671990294
 30
0.0
 11
12.8175929422
 21
9.671990294
 31
0.0
  0
LINE
  5
14C
330
144
100
AcDbEntity
  8
EBENE_1
 62
     0
100
AcDbLine
 10
12.8175929422
 20
9.671990294
 30
0.0
 11
12.8175929422
 21
4.9388883635
 31
0.0
  0
LINE
  5
14D
330
144
100
AcDbEntity
  8
EBENE_1
 62
     0
100
AcDbLine
 10
12.8175929422
 20
4.9388883635
 30
0.0
 11
11.7592596216
 21
4.9388883635
 31
0.0
  0
LINE
  5
14E
330
144
100
AcDbEntity
  8
EBENE_1
 62
     0
100
AcDbLine
 10
24.0750041956
 20
5.1887726877
 30
0.0
 11
15.2870379388
 21
5.1887726877
 31
0.0
  0
LINE
  5
14F
330
144
100
AcDbEntity
  8
EBENE_1
 62
     0
100
AcDbLine
 10
16.8675417449
 20
-20.2112273123
 30
0.0
 11
16.8675417449
 21
5.1887726877
 31
0.0
  0
MTEXT
  5
150
330
144
100
AcDbEntity
  8
EBENE_1
 62
     0
100
AcDbMText
 10
1.190625
 20
4.0927900738
 30
0.0
 40
3.175
 41
0.0
 71
     1
 72
     1
  1

  7
SLDTEXTSTYLE0
 73
     1
 44
1.0
  0
MTEXT
  5
151
330
144
100
AcDbEntity
  8
EBENE_1
 62
     0
100
AcDbMText
 10
3.5277780844
 20
9.0316784373
 30
0.0
 40
3.175
 41
0.0
 71
     1
 72
     1
  1
4,00
  7
SLDTEXTSTYLE0
 73
     1
 44
1.0
  0
MTEXT
  5
152
330
144
100
AcDbEntity
  8
EBENE_1
 62
     0
100
AcDbMText
 10
1.1759259505
 20
4.0927898409
 30
0.0
 40
3.175
 41
0.0
 71
     1
 72
     1
  1
101,60
  7
SLDTEXTSTYLE0
 73
     1
 44
1.0
  0
MTEXT
  5
153
330
144
100
AcDbEntity
  8
EBENE_1
 62
     0
100
AcDbMText
 10
15.3017368719
 20
4.0927900738
 30
0.0
 40
3.175
 41
0.0
 71
     1
 72
     1
  1

  7
SLDTEXTSTYLE0
 73
     1
 44
1.0
  0
ENDBLK
  5
146
330
144
100
AcDbEntity
  8
0
100
AcDbBlockEnd
  0
BLOCK
  5
156
330
155
100
AcDbEntity
  8
0
100
AcDbBlockBegin
  2
SW_BLOCK_DIMENSION_19
 70
     0
 10
0.0
 20
0.0
 30
0.0
  3
SW_BLOCK_DIMENSION_19
  1

  0
SOLID
  5
158
330
155
100
AcDbEntity
  8
EBENE_1
 62
     0
100
AcDbTrace
 10
16.3971707594
 20
5.1887726877
 30
0.0
 11
15.9230196175
 21
2.1067902658
 31
0.0
 12
16.8713219012
 22
2.1067902658
 32
0.0
 13
16.8713219012
 23
2.1067902658
 33
0.0
  0
LINE
  5
159
330
155
100
AcDbEntity
  8
EBENE_1
 62
     0
100
AcDbLine
 10
3.2925925916
 20
9.671990294
 30
0.0
 11
2.2342592711
 21
9.671990294
 31
0.0
  0
LINE
  5
15A
330
155
100
AcDbEntity
  8
EBENE_1
 62
     0
100
AcDbLine
 10
2.2342592711
 20
9.671990294
 30
0.0
 11
2.2342592711
 21
4.9388883635
 31
0.0
  0
LINE
  5
15B
330
155
100
AcDbEntity
  8
EBENE_1
 62
     0
100
AcDbLine
 10
2.2342592711
 20
4.9388883635
 30
0.0
 11
3.2925925916
 21
4.9388883635
 31
0.0
  0
LINE
  5
15C
330
155
100
AcDbEntity
  8
EBENE_1
 62
     0
100
AcDbLine
 10
11.5240741288
 20
9.671990294
 30
0.0
 11
12.5824074494
 21
9.671990294
 31
0.0
  0
LINE
  5
15D
330
155
100
AcDbEntity
  8
EBENE_1
 62
     0
100
AcDbLine
 10
12.5824074494
 20
9.671990294
 30
0.0
 11
12.5824074494
 21
4.9388883635
 31
0.0
  0
LINE
  5
15E
330
155
100
AcDbEntity
  8
EBENE_1
 62
     0
100
AcDbLine
 10
12.5824074494
 20
4.9388883635
 30
0.0
 11
11.5240741288
 21
4.9388883635
 31
0.0
  0
LINE
  5
15F
330
155
100
AcDbEntity
  8
EBENE_1
 62
     0
100
AcDbLine
 10
23.60463321
 20
5.1887726877
 30
0.0
 11
14.8166669533
 21
5.1887726877
 31
0.0
  0
LINE
  5
160
330
155
100
AcDbEntity
  8
EBENE_1
 62
     0
100
AcDbLine
 10
16.3971707594
 20
-20.2112273123
 30
0.0
 11
16.3971707594
 21
5.1887726877
 31
0.0
  0
MTEXT
  5
161
330
155
100
AcDbEntity
  8
EBENE_1
 62
     0
100
AcDbMText
 10
1.190625
 20
4.0927900738
 30
0.0
 40
3.175
 41
0.0
 71
     1
 72
     1
  1

  7
SLDTEXTSTYLE0
 73
     1
 44
1.0
  0
MTEXT
  5
162
330
155
100
AcDbEntity
  8
EBENE_1
 62
     0
100
AcDbMText
 10
3.2925925916
 20
9.0316784373
 30
0.0
 40
3.175
 41
0.0
 71
     1
 72
     1
  1
5,00
  7
SLDTEXTSTYLE0
 73
     1
 44
1.0
  0
MTEXT
  5
163
330
155
100
AcDbEntity
  8
EBENE_1
 62
     0
100
AcDbMText
 10
3.8805556251
 20
4.0927898409
 30
0.0
 40
3.175
 41
0.0
 71
     1
 72
     1
  1
127
  7
SLDTEXTSTYLE0
 73
     1
 44
1.0
  0
MTEXT
  5
164
330
155
100
AcDbEntity
  8
EBENE_1
 62
     0
100
AcDbMText
 10
14.8313658863
 20
4.0927900738
 30
0.0
 40
3.175
 41
0.0
 71
     1
 72
     1
  1

  7
SLDTEXTSTYLE0
 73
     1
 44
1.0
  0
ENDBLK
  5
157
330
155
100
AcDbEntity
  8
0
100
AcDbBlockEnd
  0
BLOCK
  5
167
330
166
100
AcDbEntity
  8
0
100
AcDbBlockBegin
  2
SW_NOTE_0
 70
     0
 10
0.0
 20
0.0
 30
0.0
  3
SW_NOTE_0
  1

  0
MTEXT
  5
169
330
166
100
AcDbEntity
  8
EBENE_1
 62
     0
100
AcDbMText
 10
6.7138020833
 20
4.7749217527
 30
0.0
 40
3.7041666667
 41
0.0
 71
     2
 72
     1
  1
(Inch)
  7
SLDTEXTSTYLE0
 73
     1
 44
1.0
  0
MTEXT
  5
16A
330
166
100
AcDbEntity
  8
EBENE_1
 62
     0
100
AcDbMText
 10
6.7309508326
 20
-1.1639672404
 30
0.0
 40
3.7041666667
 41
0.0
 71
     2
 72
     1
  1
mm
  7
SLDTEXTSTYLE0
 73
     1
 44
1.0
  0
ENDBLK
  5
168
330
166
100
AcDbEntity
  8
0
100
AcDbBlockEnd
  0
BLOCK
  5
172
330
171
100
AcDbEntity
  8
0
100
AcDbBlockBegin
  2
SW_NOTE_1
 70
     0
 10
0.0
 20
0.0
 30
0.0
  3
SW_NOTE_1
  1

  0
MTEXT
  5
174
330
171
100
AcDbEntity
  8
0
  6
Continuous
 62
     0
370
     0
100
AcDbMText
 10
19.893359375
 20
4.0927900738
 30
0.0
 40
3.175
 41
0.0
 71
     2
 72
     1
  1
ABP-Beyerle GmbH
  7
SLDTEXTSTYLE0
 73
     1
 44
1.0
  0
MTEXT
  5
175
330
171
100
AcDbEntity
  8
0
  6
Continuous
 62
     0
370
     0
100
AcDbMText
 10
20.6558884293
 20
-0.1405432084
 30
0.0
 40
3.175
 41
0.0
 71
     2
 72
     1
  1
Im Schollengarten 24b, 76646 Bruchsal
  7
SLDTEXTSTYLE0
 73
     1
 44
1.0
  0
MTEXT
  5
176
330
171
100
AcDbEntity
  8
0
  6
Continuous
 62
     0
370
     0
100
AcDbMText
 10
20.7863491923
 20
-4.3738764906
 30
0.0
 40
3.175
 41
0.0
 71
     2
 72
     1
  1
Tel. +49 (0)7251-9127-0, Fax. +49 (0)7251-9127-29
  7
SLDTEXTSTYLE0
 73
     1
 44
1.0
  0
MTEXT
  5
177
330
171
100
AcDbEntity
  8
0
  6
Continuous
 62
     0
370
     0
100
AcDbMText
 10
20.8392552227
 20
-8.6072097727
 30
0.0
 40
3.175
 41
0.0
 71
     2
 72
     1
  1
info@abp-beyerle.de, www.abp-beyerle.de
  7
SLDTEXTSTYLE0
 73
     1
 44
1.0
  0
ENDBLK
  5
173
330
171
100
AcDbEntity
  8
0
100
AcDbBlockEnd
  0
ENDSEC
  0
SECTION
  2
ENTITIES
  0
INSERT
  5
16D
330
1F
100
AcDbEntity
  8
EBENE_1
100
AcDbBlockReference
  2
Block1
 10
19.561342692
 20
-6.9223244521
 30
0.0
  0
MTEXT
  5
16F
330
1F
100
AcDbEntity
  8
0
  6
Continuous
 62
     7
370
     0
100
AcDbMText
 10
402.5
 20
14.7189135832
 30
0.0
 40
6.35
 41
0.0
 71
     1
 72
     1
  1
1:1
  7
SLDTEXTSTYLE1
 73
     1
 44
1.0
  0
MTEXT
  5
170
330
1F
100
AcDbEntity
  8
0
  6
Continuous
 62
     7
370
     0
100
AcDbMText
 10
168.4090458961
 20
14.7189131175
 30
0.0
 40
6.35
 41
0.0
 71
     1
 72
     1
  1
USU55DS-EF
  7
SLDTEXTSTYLE1
 73
     1
 44
1.0
  0
INSERT
  5
178
330
1F
100
AcDbEntity
  8
0
  6
Continuous
 62
     7
370
     0
100
AcDbBlockReference
  2
SW_NOTE_1
 10
35.4202146835
 20
20.1681939512
 30
0.0
  0
CIRCLE
  5
179
330
1F
100
AcDbEntity
  8
0
  6
CENTERX2
 62
     7
100
AcDbCircle
 10
-558.771794508
 20
2212.2185240523
 30
0.0
 40
6.750000000000012
  0
CIRCLE
  5
17A
330
1F
100
AcDbEntity
  8
0
  6
CENTERX2
 62
     7
100
AcDbCircle
 10
192.228205492
 20
2212.2185240523
 30
0.0
 40
6.750000000000012
  0
LINE
  5
17B
330
1F
100
AcDbEntity
  8
0
  6
Continuous
 62
     7
370
    15
100
AcDbLine
 10
-657.2717944605
 20
2186.2185242386
 30
0.0
 11
-658.271794508
 21
2185.2185240747
 31
0.0
  0
LINE
  5
17C
330
1F
100
AcDbEntity
  8
0
  6
Continuous
 62
     7
370
    15
100
AcDbLine
 10
-658.271794508
 20
2162.21852403
 30
0.0
 11
-657.2717944605
 21
2161.2185238661
 31
0.0
  0
LINE
  5
17D
330
1F
100
AcDbEntity
  8
0
  6
Continuous
 62
     7
370
    15
100
AcDbLine
 10
-657.2717944605
 20
2161.2185238661
 30
0.0
 11
-633.2717941355
 21
2161.2185238661
 31
0.0
  0
LINE
  5
17E
330
1F
100
AcDbEntity
  8
0
  6
Continuous
 62
     7
370
    15
100
AcDbLine
 10
-543.7717934351
 20
2161.2185238661
 30
0.0
 11
177.2282073993
 21
2161.2185238661
 31
0.0
  0
LINE
  5
17F
330
1F
100
AcDbEntity
  8
0
  6
Continuous
 62
     7
370
    15
100
AcDbLine
 10
207.2281787891
 20
2161.2185238661
 30
0.0
 11
1773.0615089435
 21
2161.2185238661
 31
0.0
  0
LINE
  5
180
330
1F
100
AcDbEntity
  8
0
  6
Continuous
 62
     7
370
    15
100
AcDbLine
 10
1779.3979595203
 20
2161.2185238661
 30
0.0
 11
1783.7281177539
 21
2161.2185238661
 31
0.0
  0
LINE
  5
181
330
1F
100
AcDbEntity
  8
0
  6
Continuous
 62
     7
370
    15
100
AcDbLine
 10
1856.7283103962
 20
2161.2185238661
 30
0.0
 11
1880.7282398243
 21
2161.2185238661
 31
0.0
  0
LINE
  5
182
330
1F
100
AcDbEntity
  8
0
  6
Continuous
 62
     7
370
    15
100
AcDbLine
 10
1880.7282398243
 20
2186.2185242386
 30
0.0
 11
1845.9107826252
 21
2186.2185242386
 31
0.0
  0
LINE
  5
183
330
1F
100
AcDbEntity
  8
0
  6
Continuous
 62
     7
370
    15
100
AcDbLine
 10
1826.5457103748
 20
2186.2185242386
 30
0.0
 11
207.2281787891
 21
2186.2185242386
 31
0.0
  0
LINE
  5
184
330
1F
100
AcDbEntity
  8
0
  6
Continuous
 62
     7
370
    15
100
AcDbLine
 10
177.2282073993
 20
2186.2185242386
 30
0.0
 11
-543.7717934351
 21
2186.2185242386
 31
0.0
  0
LINE
  5
185
330
1F
100
AcDbEntity
  8
0
  6
Continuous
 62
     7
370
    15
100
AcDbLine
 10
-573.7717946272
 20
2186.2185242386
 30
0.0
 11
-603.0893375378
 21
2186.2185242386
 31
0.0
  0
LINE
  5
186
330
1F
100
AcDbEntity
  8
0
  6
Continuous
 62
     7
370
    15
100
AcDbLine
 10
-622.454253326
 20
2186.2185242386
 30
0.0
 11
-657.2717944605
 21
2186.2185242386
 31
0.0
  0
LINE
  5
187
330
1F
100
AcDbEntity
  8
0
  6
Continuous
 62
     7
370
    15
100
AcDbLine
 10
1880.7282398243
 20
2161.2185238661
 30
0.0
 11
1881.728167345
 21
2162.21852403
 31
0.0
  0
LINE
  5
188
330
1F
100
AcDbEntity
  8
0
  6
Continuous
 62
     7
370
    15
100
AcDbLine
 10
1881.728167345
 20
2185.2185240747
 30
0.0
 11
1880.7282398243
 21
2186.2185242386
 31
0.0
  0
LINE
  5
189
330
1F
100
AcDbEntity
  8
0
  6
Continuous
 62
     7
370
    15
100
AcDbLine
 10
1816.0281131763
 20
2150.6185241775
 30
0.0
 11
1816.2281463642
 21
2150.8185238377
 31
0.0
  0
LINE
  5
18A
330
1F
100
AcDbEntity
  8
0
  6
Continuous
 62
     7
370
    15
100
AcDbLine
 10
1816.2281463642
 20
2168.6185238683
 30
0.0
 11
1816.0281131763
 21
2168.8185239942
 31
0.0
  0
LINE
  5
18B
330
1F
100
AcDbEntity
  8
0
  6
Continuous
 62
     7
370
    15
100
AcDbLine
 10
1810.9281013507
 20
2168.8185239942
 30
0.0
 11
1810.7283065815
 21
2168.6185238683
 31
0.0
  0
LINE
  5
18C
330
1F
100
AcDbEntity
  8
0
  6
Continuous
 62
     7
370
    15
100
AcDbLine
 10
1810.7283065815
 20
2150.8185238377
 30
0.0
 11
1810.9281013507
 21
2150.6185241775
 31
0.0
  0
LINE
  5
18D
330
1F
100
AcDbEntity
  8
0
  6
Continuous
 62
     7
370
    15
100
AcDbLine
 10
1816.0281131763
 20
2168.8185239942
 30
0.0
 11
1810.9281013507
 21
2168.8185239942
 31
0.0
  0
LINE
  5
18E
330
1F
100
AcDbEntity
  8
0
  6
Continuous
 62
     7
370
    15
100
AcDbLine
 10
1810.9281013507
 20
2150.6185241775
 30
0.0
 11
1816.0281131763
 21
2150.6185241775
 31
0.0
  0
LINE
  5
18F
330
1F
100
AcDbEntity
  8
0
  6
Continuous
 62
     7
370
    15
100
AcDbLine
 10
-592.5717924934
 20
2168.8185239942
 30
0.0
 11
-592.7717958789
 21
2168.6185238683
 31
0.0
  0
LINE
  5
190
330
1F
100
AcDbEntity
  8
0
  6
Continuous
 62
     7
370
    15
100
AcDbLine
 10
-592.7717958789
 20
2150.8185238377
 30
0.0
 11
-592.5717924934
 21
2150.6185241775
 31
0.0
  0
LINE
  5
191
330
1F
100
AcDbEntity
  8
0
  6
Continuous
 62
     7
370
    15
100
AcDbLine
 10
-587.471795569
 20
2150.6185241775
 30
0.0
 11
-587.2717921834
 21
2150.8185238377
 31
0.0
  0
LINE
  5
192
330
1F
100
AcDbEntity
  8
0
  6
Continuous
 62
     7
370
    15
100
AcDbLine
 10
-587.2717921834
 20
2168.6185238683
 30
0.0
 11
-587.471795569
 21
2168.8185239942
 31
0.0
  0
LINE
  5
193
330
1F
100
AcDbEntity
  8
0
  6
Continuous
 62
     7
370
    15
100
AcDbLine
 10
-592.5717924934
 20
2150.6185241775
 30
0.0
 11
-587.471795569
 21
2150.6185241775
 31
0.0
  0
LINE
  5
194
330
1F
100
AcDbEntity
  8
0
  6
Continuous
 62
     7
370
    15
100
AcDbLine
 10
-587.471795569
 20
2168.8185239942
 30
0.0
 11
-592.5717924934
 21
2168.8185239942
 31
0.0
  0
LINE
  5
195
330
1F
100
AcDbEntity
  8
0
  6
Continuous
 62
     7
370
    15
100
AcDbLine
 10
1810.7283065815
 20
2165.6685237573
 30
0.0
 11
1786.0281417865
 21
2165.6685237573
 31
0.0
  0
LINE
  5
196
330
1F
100
AcDbEntity
  8
0
  6
Continuous
 62
     7
370
    15
100
AcDbLine
 10
1786.0281417865
 20
2153.7685234831
 30
0.0
 11
1810.7283065815
 21
2153.7685234831
 31
0.0
  0
ARC
  5
197
330
1F
100
AcDbEntity
  8
0
  6
Continuous
 62
     7
370
    15
100
AcDbCircle
 10
1786.028205492
 20
2154.0685240523
 30
0.0
 40
0.3000000000001819
100
AcDbArc
 50
180.0
 51
270.0
  0
ARC
  5
198
330
1F
100
AcDbEntity
  8
0
  6
Continuous
 62
     7
370
    15
100
AcDbCircle
 10
1786.028205492
 20
2165.3685240523
 30
0.0
 40
0.3000000000001819
100
AcDbArc
 50
90.0
 51
180.0
  0
LINE
  5
199
330
1F
100
AcDbEntity
  8
0
  6
Continuous
 62
     7
370
    15
100
AcDbLine
 10
-587.2717921834
 20
2153.7685234831
 30
0.0
 11
-578.5717939239
 21
2153.7685234831
 31
0.0
  0
LINE
  5
19A
330
1F
100
AcDbEntity
  8
0
  6
Continuous
 62
     7
370
    15
100
AcDbLine
 10
-578.5717939239
 20
2165.6685237573
 30
0.0
 11
-587.2717921834
 21
2165.6685237573
 31
0.0
  0
ARC
  5
19B
330
1F
100
AcDbEntity
  8
0
  6
Continuous
 62
     7
370
    15
100
AcDbCircle
 10
-578.571794508
 20
2165.3685240523
 30
0.0
 40
0.3000000000001819
100
AcDbArc
 50
0.0
 51
90.0
  0
ARC
  5
19C
330
1F
100
AcDbEntity
  8
0
  6
Continuous
 62
     7
370
    15
100
AcDbCircle
 10
-578.571794508
 20
2154.0685240523
 30
0.0
 40
0.3000000000001819
100
AcDbArc
 50
270.0
 51
0.0
  0
LINE
  5
19D
330
1F
100
AcDbEntity
  8
0
  6
Continuous
 62
     7
370
    15
100
AcDbLine
 10
-576.271792243
 20
2164.7185244397
 30
0.0
 11
-578.2717962962
 21
2164.7185244397
 31
0.0
  0
LINE
  5
19E
330
1F
100
AcDbEntity
  8
0
  6
Continuous
 62
     7
370
    15
100
AcDbLine
 10
-578.2717962962
 20
2154.7185246633
 30
0.0
 11
-576.271792243
 21
2154.7185246633
 31
0.0
  0
LINE
  5
19F
330
1F
100
AcDbEntity
  8
0
  6
Continuous
 62
     7
370
    15
100
AcDbLine
 10
1783.7281177539
 20
2154.7185246633
 30
0.0
 11
1785.728211214
 21
2154.7185246633
 31
0.0
  0
LINE
  5
1A0
330
1F
100
AcDbEntity
  8
0
  6
Continuous
 62
     7
370
    15
100
AcDbLine
 10
1785.728211214
 20
2164.7185244397
 30
0.0
 11
1783.7281177539
 21
2164.7185244397
 31
0.0
  0
LINE
  5
1A1
330
1F
100
AcDbEntity
  8
0
  6
Continuous
 62
     7
370
    15
100
AcDbLine
 10
-632.7649031978
 20
2168.1935241246
 30
0.0
 11
-632.9717946451
 21
2168.1935241246
 31
0.0
  0
LINE
  5
1A2
330
1F
100
AcDbEntity
  8
0
  6
Continuous
 62
     7
370
    15
100
AcDbLine
 10
-632.9717946451
 20
2151.2435235814
 30
0.0
 11
-622.4992995363
 21
2151.2435235814
 31
0.0
  0
LINE
  5
1A3
330
1F
100
AcDbEntity
  8
0
  6
Continuous
 62
     7
370
    15
100
AcDbLine
 10
-592.7717958789
 20
2168.1935241246
 30
0.0
 11
-592.778687666
 21
2168.1935241246
 31
0.0
  0
LINE
  5
1A4
330
1F
100
AcDbEntity
  8
0
  6
Continuous
 62
     7
370
    15
100
AcDbLine
 10
-603.0442876022
 20
2151.2435235814
 30
0.0
 11
-592.7717958789
 21
2151.2435235814
 31
0.0
  0
LINE
  5
1A5
330
1F
100
AcDbEntity
  8
0
  6
Continuous
 62
     7
370
    15
100
AcDbLine
 10
-632.9717946451
 20
2168.1935241246
 30
0.0
 11
-633.2717941355
 21
2167.8935241685
 31
0.0
  0
LINE
  5
1A6
330
1F
100
AcDbEntity
  8
0
  6
Continuous
 62
     7
370
    15
100
AcDbLine
 10
-633.2717941355
 20
2151.5435249345
 30
0.0
 11
-632.9717946451
 21
2151.2435235814
 31
0.0
  0
LINE
  5
1A7
330
1F
100
AcDbEntity
  8
0
  6
Continuous
 62
     7
370
    15
100
AcDbLine
 10
1816.2281463642
 20
2151.2435235814
 30
0.0
 11
1826.5006492633
 21
2151.2435235814
 31
0.0
  0
LINE
  5
1A8
330
1F
100
AcDbEntity
  8
0
  6
Continuous
 62
     7
370
    15
100
AcDbLine
 10
1816.235060503
 20
2168.1935241246
 30
0.0
 11
1816.2281463642
 21
2168.1935241246
 31
0.0
  0
LINE
  5
1A9
330
1F
100
AcDbEntity
  8
0
  6
Continuous
 62
     7
370
    15
100
AcDbLine
 10
1856.4281414051
 20
2151.2435235814
 30
0.0
 11
1856.7283103962
 21
2151.5435249345
 31
0.0
  0
LINE
  5
1AA
330
1F
100
AcDbEntity
  8
0
  6
Continuous
 62
     7
370
    15
100
AcDbLine
 10
1856.7283103962
 20
2167.8935241685
 30
0.0
 11
1856.4281414051
 21
2168.1935241246
 31
0.0
  0
LINE
  5
1AB
330
1F
100
AcDbEntity
  8
0
  6
Continuous
 62
     7
370
    15
100
AcDbLine
 10
1845.955605318
 20
2151.2435235814
 30
0.0
 11
1856.4281414051
 21
2151.2435235814
 31
0.0
  0
LINE
  5
1AC
330
1F
100
AcDbEntity
  8
0
  6
Continuous
 62
     7
370
    15
100
AcDbLine
 10
1856.4281414051
 20
2168.1935241246
 30
0.0
 11
1856.221432497
 21
2168.1935241246
 31
0.0
  0
LINE
  5
1AD
330
1F
100
AcDbEntity
  8
0
  6
Continuous
 62
     7
370
    15
100
AcDbLine
 10
-573.7717946272
 20
2161.718523948
 30
0.0
 11
-576.271792243
 21
2161.718523948
 31
0.0
  0
LINE
  5
1AE
330
1F
100
AcDbEntity
  8
0
  6
Continuous
 62
     7
370
    15
100
AcDbLine
 10
-576.271792243
 20
2155.7185248272
 30
0.0
 11
-573.7717946272
 21
2155.7185248272
 31
0.0
  0
ARC
  5
1AF
330
1F
100
AcDbEntity
  8
0
  6
Continuous
 62
     7
370
    15
100
AcDbCircle
 10
1777.617606588
 20
2160.8908617501
 30
0.0
 40
4.999999999999996
100
AcDbArc
 50
265.7108466712
 51
299.125466729
  0
ARC
  5
1B0
330
1F
100
AcDbEntity
  8
0
  6
Continuous
 62
     7
370
    15
100
AcDbCircle
 10
1777.617606588
 20
2156.5461863545
 30
0.0
 40
5.000000000000165
100
AcDbArc
 50
60.874533271
 51
94.2891533288
  0
LINE
  5
1B1
330
1F
100
AcDbEntity
  8
0
  6
Continuous
 62
     7
370
    15
100
AcDbLine
 10
1777.2436092395
 20
2161.5321830646
 30
0.0
 11
1770.6534812946
 21
2161.0379143418
 31
0.0
  0
LINE
  5
1B2
330
1F
100
AcDbEntity
  8
0
  6
Continuous
 62
     7
370
    15
100
AcDbLine
 10
1770.6534812946
 20
2156.3991335021
 30
0.0
 11
1777.2436092395
 21
2155.9048657106
 31
0.0
  0
ARC
  5
1B3
330
1F
100
AcDbEntity
  8
0
  6
Continuous
 62
     7
370
    15
100
AcDbCircle
 10
1770.728205492
 20
2160.0407154963
 30
0.0
 40
1.000000000000403
100
AcDbArc
 50
94.2891533288
 51
180.0
  0
ARC
  5
1B4
330
1F
100
AcDbEntity
  8
0
  6
Continuous
 62
     7
370
    15
100
AcDbCircle
 10
1770.728205492
 20
2157.3963326083
 30
0.0
 40
1.0
100
AcDbArc
 50
180.0
 51
265.7108466712
  0
ARC
  5
1B5
330
1F
100
AcDbEntity
  8
0
  6
Continuous
 62
     7
370
    15
100
AcDbCircle
 10
1782.728205492
 20
2165.7185240523
 30
0.0
 40
5.500000000000106
100
AcDbArc
 50
240.874533271
 51
270.0
  0
ARC
  5
1B6
330
1F
100
AcDbEntity
  8
0
  6
Continuous
 62
     7
370
    15
100
AcDbCircle
 10
1782.728205492
 20
2151.7185240523
 30
0.0
 40
5.5
100
AcDbArc
 50
90.0
 51
119.125466729
  0
LINE
  5
1B7
330
1F
100
AcDbEntity
  8
0
  6
Continuous
 62
     7
370
    15
100
AcDbLine
 10
1783.7281177539
 20
2160.2185237021
 30
0.0
 11
1782.7281902332
 21
2160.2185237021
 31
0.0
  0
LINE
  5
1B8
330
1F
100
AcDbEntity
  8
0
  6
Continuous
 62
     7
370
    15
100
AcDbLine
 10
1782.7281902332
 20
2157.2185241417
 30
0.0
 11
1783.7281177539
 21
2157.2185241417
 31
0.0
  0
LINE
  5
1B9
330
1F
100
AcDbEntity
  8
0
  6
Continuous
 62
     7
370
    15
100
AcDbLine
 10
220.2980468769
 20
88.7184859053
 30
0.0
 11
220.2281902332
 21
84.7185374038
 31
0.0
  0
LINE
  5
1BA
330
1F
100
AcDbEntity
  8
0
  6
Continuous
 62
     7
370
    15
100
AcDbLine
 10
248.2281873722
 20
84.7185374038
 30
0.0
 11
248.1583903331
 21
88.7184859053
 31
0.0
  0
LINE
  5
1BB
330
1F
100
AcDbEntity
  8
0
  6
Continuous
 62
     7
370
    15
100
AcDbLine
 10
-657.2717944605
 20
2186.2185242386
 30
0.0
 11
-657.2717944605
 21
2161.2185238661
 31
0.0
  0
LINE
  5
1BC
330
1F
100
AcDbEntity
  8
0
  6
Continuous
 62
     7
370
    15
100
AcDbLine
 10
-658.271794508
 20
2162.21852403
 30
0.0
 11
-658.271794508
 21
2185.2185240747
 31
0.0
  0
SPLINE
  5
1BD
330
1F
100
AcDbEntity
  8
0
  6
Continuous
 62
     7
370
    15
100
AcDbSpline
210
0.0
220
0.0
230
1.0
 70
    11
 71
     3
 72
    28
 73
    24
 74
     0
 42
0.000000001
 43
0.00000001
 40
0.0
 40
0.0
 40
0.0
 40
0.0
 40
0.0475550541829881
 40
0.0949664989423357
 40
0.1460689865494429
 40
0.2034573917058288
 40
0.2467863057969839
 40
0.2901850427436359
 40
0.3330339486738815
 40
0.3834826849147824
 40
0.4410923331344794
 40
0.4950486898867036
 40
0.5415905672641624
 40
0.5869411599037999
 40
0.6370246784227939
 40
0.6937086392761176
 40
0.73813310654845
 40
0.7826943610056609
 40
0.8249684737517323
 40
0.8737317825522524
 40
0.9306918419554968
 40
0.986018877789038
 40
1.0
 40
1.0
 40
1.0
 40
1.0
 10
999.2781827945273
 20
2173.718524052316
 30
0.0
 10
999.2082271461874
 20
2172.945724886546
 30
0.0
 10
999.0685271055044
 20
2171.402460297332
 30
0.0
 10
997.9955658101153
 20
2169.316782234637
 30
0.0
 10
996.3412515958411
 20
2167.56545126461
 30
0.0
 10
994.2131413215734
 20
2166.451912780456
 30
0.0
 10
991.8876874542581
 20
2166.069428829208
 30
0.0
 10
989.7729502521638
 20
2166.327325646081
 30
0.0
 10
987.7777753529234
 20
2167.163111759969
 30
0.0
 10
985.9617777751855
 20
2168.634429920901
 30
0.0
 10
984.5912319913435
 20
2170.804064969966
 30
0.0
 10
984.0509886500806
 20
2173.353785714765
 30
0.0
 10
984.3397697661328
 20
2175.737780037541
 30
0.0
 10
985.2553717472906
 20
2177.815364875588
 30
0.0
 10
986.7958663693848
 20
2179.610168247847
 30
0.0
 10
988.8302221017427
 20
2180.828842501486
 30
0.0
 10
991.1389525611129
 20
2181.351648232583
 30
0.0
 10
993.3025517198964
 20
2181.202853911001
 30
0.0
 10
995.3326582686623
 20
2180.465744001993
 30
0.0
 10
997.1919813684345
 20
2179.118168930038
 30
0.0
 10
998.6674168426682
 20
2177.066380349556
 30
0.0
 10
999.2407292550683
 20
2175.065735034174
 30
0.0
 10
999.2718957608201
 20
2173.944669857917
 30
0.0
 10
999.2781827945273
 20
2173.718524052316
 30
0.0
  0
SPLINE
  5
1BE
330
1F
100
AcDbEntity
  8
0
  6
Continuous
 62
     7
370
    15
100
AcDbSpline
210
0.0
220
0.0
230
1.0
 70
    11
 71
     3
 72
    28
 73
    24
 74
     0
 42
0.000000001
 43
0.00000001
 40
0.0
 40
0.0
 40
0.0
 40
0.0
 40
0.0475550301850669
 40
0.0949664510189636
 40
0.1460697163900528
 40
0.2034570431680759
 40
0.246785935393966
 40
0.2901858654992773
 40
0.3330336495135738
 40
0.3834832669721917
 40
0.4410922613985858
 40
0.4950485909225706
 40
0.5415904448133922
 40
0.5869405364346627
 40
0.6370247893906295
 40
0.6937087216392708
 40
0.738134351460803
 40
0.7826955834308673
 40
0.8249696748439629
 40
0.873731065102807
 40
0.9306924613319165
 40
0.9860188297534707
 40
1.0
 40
1.0
 40
1.0
 40
1.0
 10
239.2781923312704
 20
2173.718524052316
 30
0.0
 10
239.20823575174
 20
2172.945725678459
 30
0.0
 10
239.068533851487
 20
2171.402462670682
 30
0.0
 10
237.9955809288229
 20
2169.316760994141
 30
0.0
 10
236.3412044028378
 20
2167.565488337405
 30
0.0
 10
234.2131411621987
 20
2166.451897383737
 30
0.0
 10
231.8876781249889
 20
2166.069435200989
 30
0.0
 10
229.7729284236974
 20
2166.32730326586
 30
0.0
 10
227.7777745660538
 20
2167.163146251663
 30
0.0
 10
225.9617154366
 20
2168.634390548653
 30
0.0
 10
224.5912591751014
 20
2170.804085591588
 30
0.0
 10
224.0509875913769
 20
2173.353786206227
 30
0.0
 10
224.3398002561229
 20
2175.737763337464
 30
0.0
 10
225.2552988840367
 20
2177.81539840662
 30
0.0
 10
226.7958896267325
 20
2179.61014616757
 30
0.0
 10
228.8302407741864
 20
2180.828858602045
 30
0.0
 10
231.1390071120573
 20
2181.351644249946
 30
0.0
 10
233.3026131724532
 20
2181.202849737263
 30
0.0
 10
235.3327252157935
 20
2180.465775943721
 30
0.0
 10
237.1919010206939
 20
2179.118091282587
 30
0.0
 10
238.6675871809339
 20
2177.066448656598
 30
0.0
 10
239.2405981967509
 20
2175.065717311489
 30
0.0
 10
239.2718816319951
 20
2173.944669211209
 30
0.0
 10
239.2781923312704
 20
2173.718524052316
 30
0.0
  0
SPLINE
  5
1BF
330
1F
100
AcDbEntity
  8
0
  6
Continuous
 62
     7
370
    15
100
AcDbSpline
210
0.0
220
0.0
230
1.0
 70
    11
 71
     3
 72
    96
 73
    92
 74
     0
 42
0.000000001
 43
0.00000001
 40
0.0
 40
0.0
 40
0.0
 40
0.0
 40
0.0312499999999983
 40
0.0312499999999983
 40
0.0624999999999967
 40
0.0624999999999967
 40
0.093749999999995
 40
0.093749999999995
 40
0.1249999999999934
 40
0.1249999999999934
 40
0.1406249999999926
 40
0.1406249999999926
 40
0.1562499999999918
 40
0.1562499999999918
 40
0.1874999999999901
 40
0.1874999999999901
 40
0.2187499999999885
 40
0.2187499999999885
 40
0.2343749999999876
 40
0.2343749999999876
 40
0.2499999999999868
 40
0.2499999999999868
 40
0.2812499999999869
 40
0.2812499999999869
 40
0.2968749999999861
 40
0.2968749999999861
 40
0.3124999999999853
 40
0.3124999999999853
 40
0.3281249999999846
 40
0.3281249999999846
 40
0.3437499999999838
 40
0.3437499999999838
 40
0.3749999999999835
 40
0.3749999999999835
 40
0.3906249999999837
 40
0.3906249999999837
 40
0.4062499999999838
 40
0.4062499999999838
 40
0.4374999999999837
 40
0.4374999999999837
 40
0.4531249999999837
 40
0.4531249999999837
 40
0.4687499999999836
 40
0.4687499999999836
 40
0.4843749999999836
 40
0.4843749999999836
 40
0.4999999999999836
 40
0.4999999999999836
 40
0.5312499999999835
 40
0.5312499999999835
 40
0.5468749999999833
 40
0.5468749999999833
 40
0.5624999999999833
 40
0.5624999999999833
 40
0.5781249999999832
 40
0.5781249999999832
 40
0.5937499999999832
 40
0.5937499999999832
 40
0.6249999999999836
 40
0.6249999999999836
 40
0.6562499999999839
 40
0.6562499999999839
 40
0.6874999999999842
 40
0.6874999999999842
 40
0.7031249999999851
 40
0.7031249999999851
 40
0.7187499999999861
 40
0.7187499999999861
 40
0.734374999999987
 40
0.734374999999987
 40
0.7499999999999879
 40
0.7499999999999879
 40
0.7812499999999897
 40
0.7812499999999897
 40
0.8124999999999915
 40
0.8124999999999915
 40
0.8437499999999932
 40
0.8437499999999932
 40
0.874999999999995
 40
0.874999999999995
 40
0.9062499999999968
 40
0.9062499999999968
 40
0.9218749999999973
 40
0.9218749999999973
 40
0.9374999999999978
 40
0.9374999999999978
 40
0.9687499999999988
 40
0.9687499999999988
 40
0.9843749999999994
 40
0.9843749999999994
 40
1.0
 40
1.0
 40
1.0
 40
1.0
 10
-520.7217945080238
 20
2173.718524052316
 30
0.0
 10
-520.7217945080239
 20
2173.206165607985
 30
0.0
 10
-520.7733894893591
 20
2172.70462513311
 30
0.0
 10
-520.973404063424
 20
2171.721635031744
 30
0.0
 10
-521.1245381672085
 20
2171.235892354051
 30
0.0
 10
-521.5091474697458
 20
2170.325392992922
 30
0.0
 10
-521.7426508164193
 20
2169.895903653814
 30
0.0
 10
-522.2909538575578
 20
2169.084768645478
 30
0.0
 10
-522.5991680277904
 20
2168.713139023078
 30
0.0
 10
-523.1084490869752
 20
2168.204915281127
 30
0.0
 10
-523.2862752471473
 20
2168.043550105353
 30
0.0
 10
-523.6588464268399
 20
2167.736764979972
 30
0.0
 10
-523.8538180068858
 20
2167.591362439118
 30
0.0
 10
-524.4536943972734
 20
2167.187282612918
 30
0.0
 10
-524.8769127307903
 20
2166.957172872773
 30
0.0
 10
-525.7764391716281
 20
2166.576094927739
 30
0.0
 10
-526.2587993366817
 20
2166.424610870131
 30
0.0
 10
-526.9945948004845
 20
2166.273125092264
 30
0.0
 10
-527.2427822970134
 20
2166.234711934731
 30
0.0
 10
-527.7453071553736
 20
2166.182668360411
 30
0.0
 10
-528.0011643710421
 20
2166.169050333685
 30
0.0
 10
-528.7677441401444
 20
2166.16751681091
 30
0.0
 10
-529.269201493056
 20
2166.217844279505
 30
0.0
 10
-530.0081435327072
 20
2166.366604472948
 30
0.0
 10
-530.2535824161611
 20
2166.428994442139
 30
0.0
 10
-530.7304232077136
 20
2166.575704569259
 30
0.0
 10
-530.9625182737057
 20
2166.660003011653
 30
0.0
 10
-531.4151775666472
 20
2166.849619000458
 30
0.0
 10
-531.6357394861556
 20
2166.954939778846
 30
0.0
 10
-532.066006775583
 20
2167.186590853872
 30
0.0
 10
-532.2755862007481
 20
2167.313011793113
 30
0.0
 10
-532.8779251336416
 20
2167.716874150346
 30
0.0
 10
-533.2486900089102
 20
2168.020660386732
 30
0.0
 10
-533.7621333739531
 20
2168.530379978386
 30
0.0
 10
-533.926731317185
 20
2168.710256591111
 30
0.0
 10
-534.2358266539558
 20
2169.08264508055
 30
0.0
 10
-534.3808868169062
 20
2169.275569794516
 30
0.0
 10
-534.7881624505646
 20
2169.874976948558
 30
0.0
 10
-535.0228377941545
 20
2170.301834650744
 30
0.0
 10
-535.3154791041021
 20
2170.988877501849
 30
0.0
 10
-535.4025066497531
 20
2171.225011072613
 30
0.0
 10
-535.5514787742552
 20
2171.700886916422
 30
0.0
 10
-535.6140796412468
 20
2171.942091942991
 30
0.0
 10
-535.7154180995357
 20
2172.431150817984
 30
0.0
 10
-535.7541576177525
 20
2172.679003954628
 30
0.0
 10
-535.8069207898214
 20
2173.181651947724
 30
0.0
 10
-535.8209111166686
 20
2173.438328129916
 30
0.0
 10
-535.8234380051036
 20
2174.204184217852
 30
0.0
 10
-535.7738395577011
 20
2174.706460911271
 30
0.0
 10
-535.6253591319859
 20
2175.448014472175
 30
0.0
 10
-535.5629294348824
 20
2175.694669267374
 30
0.0
 10
-535.4151967796488
 20
2176.17567736833
 30
0.0
 10
-535.3301706455063
 20
2176.409815115162
 30
0.0
 10
-535.1388161062532
 20
2176.866179632678
 30
0.0
 10
-535.03248479858
 20
2177.088404032977
 30
0.0
 10
-534.7987610249882
 20
2177.521382500287
 30
0.0
 10
-534.67067941659
 20
2177.733056339099
 30
0.0
 10
-534.2612526750067
 20
2178.341042963552
 30
0.0
 10
-533.9545022507868
 20
2178.712676629672
 30
0.0
 10
-533.2734431542834
 20
2179.394635227667
 30
0.0
 10
-532.8971294286223
 20
2179.705199474646
 30
0.0
 10
-532.0997537446839
 20
2180.243915521225
 30
0.0
 10
-531.6757836361686
 20
2180.47561427989
 30
0.0
 10
-530.9952769004708
 20
2180.764506683578
 30
0.0
 10
-530.7601222262423
 20
2180.851034728785
 30
0.0
 10
-530.2848320803573
 20
2180.999469259882
 30
0.0
 10
-530.0434671175263
 20
2181.061984454278
 30
0.0
 10
-529.552873982152
 20
2181.163258425778
 30
0.0
 10
-529.303646426541
 20
2181.202020501451
 30
0.0
 10
-528.7967055323585
 20
2181.254564518138
 30
0.0
 10
-528.5398239649315
 20
2181.268030039722
 30
0.0
 10
-527.7786262802193
 20
2181.269471467953
 30
0.0
 10
-527.2765010604307
 20
2181.219784878157
 30
0.0
 10
-526.282555055967
 20
2181.019376702966
 30
0.0
 10
-525.8059472599995
 20
2180.871458756476
 30
0.0
 10
-524.8979244508943
 20
2180.490663918723
 30
0.0
 10
-524.4636316859231
 20
2180.255625960142
 30
0.0
 10
-523.6616547764254
 20
2179.7170586307
 30
0.0
 10
-523.2887112611695
 20
2179.411244806896
 30
0.0
 10
-522.6006607740101
 20
2178.726161260186
 30
0.0
 10
-522.2936467369519
 20
2178.355186748027
 30
0.0
 10
-521.8862091991614
 20
2177.754041143704
 30
0.0
 10
-521.7593298080634
 20
2177.546156151219
 30
0.0
 10
-521.5240726984513
 20
2177.114288227492
 30
0.0
 10
-521.4151794187546
 20
2176.888868782387
 30
0.0
 10
-521.1247240681029
 20
2176.202252879374
 30
0.0
 10
-520.9769447410154
 20
2175.728269168681
 30
0.0
 10
-520.8256674800156
 20
2174.991530109551
 30
0.0
 10
-520.7870622587193
 20
2174.741630033313
 30
0.0
 10
-520.7349706067588
 20
2174.232574802195
 30
0.0
 10
-520.7217945080239
 20
2173.974703274482
 30
0.0
 10
-520.7217945080239
 20
2173.718524052316
 30
0.0
  0
LINE
  5
1C0
330
1F
100
AcDbEntity
  8
0
  6
Continuous
 62
     7
370
    15
100
AcDbLine
 10
1880.7282398243
 20
2161.2185238661
 30
0.0
 11
1880.7282398243
 21
2186.2185242386
 31
0.0
  0
SPLINE
  5
1C1
330
1F
100
AcDbEntity
  8
0
  6
Continuous
 62
     7
370
    15
100
AcDbSpline
210
0.0
220
0.0
230
1.0
 70
    11
 71
     3
 72
    28
 73
    24
 74
     0
 42
0.000000001
 43
0.00000001
 40
0.0
 40
0.0
 40
0.0
 40
0.0
 40
0.0475549560488062
 40
0.0949673497498674
 40
0.146069731902341
 40
0.2034580186325304
 40
0.2467844340763525
 40
0.2901855115810387
 40
0.3330343290886675
 40
0.3834829612240103
 40
0.4410937400602256
 40
0.4950499854685974
 40
0.5415920556437515
 40
0.586942554698314
 40
0.6370274893033306
 40
0.6937113331841428
 40
0.7381333388586676
 40
0.7826945013596748
 40
0.8249685268692676
 40
0.873729841111187
 40
0.9306925141808725
 40
0.9860187963509816
 40
1.0
 40
1.0
 40
1.0
 40
1.0
 10
1759.278292467074
 20
2173.718524052316
 30
0.0
 10
1759.208347252555
 20
2172.94572011559
 30
0.0
 10
1759.068666508371
 20
2171.402428987914
 30
0.0
 10
1757.99552811099
 20
2169.316812293943
 30
0.0
 10
1756.341254754308
 20
2167.565445015703
 30
0.0
 10
1754.213161998999
 20
2166.451933466343
 30
0.0
 10
1751.887721981059
 20
2166.069425048446
 30
0.0
 10
1749.772976961465
 20
2166.327312701298
 30
0.0
 10
1747.777760517445
 20
2167.163107712927
 30
0.0
 10
1745.961779238939
 20
2168.634459969487
 30
0.0
 10
1744.591094348385
 20
2170.80402635408
 30
0.0
 10
1744.050813531362
 20
2173.353801196278
 30
0.0
 10
1744.339803873455
 20
2175.737765941631
 30
0.0
 10
1745.255338173592
 20
2177.815404256321
 30
0.0
 10
1746.795992244261
 20
2179.610132963617
 30
0.0
 10
1748.830293275548
 20
2180.828820428951
 30
0.0
 10
1751.138982704639
 20
2181.351658408624
 30
0.0
 10
1753.302533776786
 20
2181.202844208039
 30
0.0
 10
1755.332653429321
 20
2180.46578114988
 30
0.0
 10
1757.191805482665
 20
2179.118060392663
 30
0.0
 10
1758.667679926878
 20
2177.066489828539
 30
0.0
 10
1759.240565450997
 20
2175.065712282633
 30
0.0
 10
1759.271959445168
 20
2173.944668960129
 30
0.0
 10
1759.278292467074
 20
2173.718524052316
 30
0.0
  0
LINE
  5
1C2
330
1F
100
AcDbEntity
  8
0
  6
Continuous
 62
     7
370
    15
100
AcDbLine
 10
1881.728167345
 20
2185.2185240747
 30
0.0
 11
1881.728167345
 21
2162.21852403
 31
0.0
  0
LINE
  5
1C3
330
1F
100
AcDbEntity
  8
0
  6
Continuous
 62
     7
370
    15
100
AcDbLine
 10
1816.0281131763
 20
2150.6185241775
 30
0.0
 11
1816.0281131763
 21
2168.8185239942
 31
0.0
  0
LINE
  5
1C4
330
1F
100
AcDbEntity
  8
0
  6
Continuous
 62
     7
370
    15
100
AcDbLine
 10
1816.2281463642
 20
2168.6185238683
 30
0.0
 11
1816.2281463642
 21
2150.8185238377
 31
0.0
  0
LINE
  5
1C5
330
1F
100
AcDbEntity
  8
0
  6
Continuous
 62
     7
370
    15
100
AcDbLine
 10
1810.7283065815
 20
2150.8185238377
 30
0.0
 11
1810.7283065815
 21
2168.6185238683
 31
0.0
  0
LINE
  5
1C6
330
1F
100
AcDbEntity
  8
0
  6
Continuous
 62
     7
370
    15
100
AcDbLine
 10
1810.9281013507
 20
2168.8185239942
 30
0.0
 11
1810.9281013507
 21
2150.6185241775
 31
0.0
  0
LINE
  5
1C7
330
1F
100
AcDbEntity
  8
0
  6
Continuous
 62
     7
370
    15
100
AcDbLine
 10
-592.5717924934
 20
2166.7986972057
 30
0.0
 11
-592.5717924934
 21
2150.6185241775
 31
0.0
  0
LINE
  5
1C8
330
1F
100
AcDbEntity
  8
0
  6
Continuous
 62
     7
370
    15
100
AcDbLine
 10
-592.5717924934
 20
2168.8185239942
 30
0.0
 11
-592.5717924934
 21
2166.7986972057
 31
0.0
  0
LINE
  5
1C9
330
1F
100
AcDbEntity
  8
0
  6
Continuous
 62
     7
370
    15
100
AcDbLine
 10
-592.7717958789
 20
2166.643089036
 30
0.0
 11
-592.7717958789
 21
2168.6185238683
 31
0.0
  0
LINE
  5
1CA
330
1F
100
AcDbEntity
  8
0
  6
Continuous
 62
     7
370
    15
100
AcDbLine
 10
-592.7717958789
 20
2150.8185238377
 30
0.0
 11
-592.7717958789
 21
2166.643089036
 31
0.0
  0
LINE
  5
1CB
330
1F
100
AcDbEntity
  8
0
  6
Continuous
 62
     7
370
    15
100
AcDbLine
 10
-587.2717921834
 20
2166.643089036
 30
0.0
 11
-587.2717921834
 21
2150.8185238377
 31
0.0
  0
LINE
  5
1CC
330
1F
100
AcDbEntity
  8
0
  6
Continuous
 62
     7
370
    15
100
AcDbLine
 10
-587.2717921834
 20
2168.6185238683
 30
0.0
 11
-587.2717921834
 21
2166.643089036
 31
0.0
  0
LINE
  5
1CD
330
1F
100
AcDbEntity
  8
0
  6
Continuous
 62
     7
370
    15
100
AcDbLine
 10
-587.471795569
 20
2166.7986972057
 30
0.0
 11
-587.471795569
 21
2168.8185239942
 31
0.0
  0
LINE
  5
1CE
330
1F
100
AcDbEntity
  8
0
  6
Continuous
 62
     7
370
    15
100
AcDbLine
 10
-587.471795569
 20
2150.6185241775
 30
0.0
 11
-587.471795569
 21
2166.7986972057
 31
0.0
  0
LINE
  5
1CF
330
1F
100
AcDbEntity
  8
0
  6
Continuous
 62
     7
370
    15
100
AcDbLine
 10
1785.728211214
 20
2154.0685248361
 30
0.0
 11
1785.728211214
 21
2165.3685242669
 31
0.0
  0
LINE
  5
1D0
330
1F
100
AcDbEntity
  8
0
  6
Continuous
 62
     7
370
    15
100
AcDbLine
 10
-578.2717962962
 20
2165.3685242669
 30
0.0
 11
-578.2717962962
 21
2154.0685248361
 31
0.0
  0
LINE
  5
1D1
330
1F
100
AcDbEntity
  8
0
  6
Continuous
 62
     7
370
    15
100
AcDbLine
 10
-576.271792243
 20
2158.0880385624
 30
0.0
 11
-576.271792243
 21
2164.7185244397
 31
0.0
  0
LINE
  5
1D2
330
1F
100
AcDbEntity
  8
0
  6
Continuous
 62
     7
370
    15
100
AcDbLine
 10
-576.271792243
 20
2154.7185246633
 30
0.0
 11
-576.271792243
 21
2158.0880385624
 31
0.0
  0
LINE
  5
1D3
330
1F
100
AcDbEntity
  8
0
  6
Continuous
 62
     7
370
    15
100
AcDbLine
 10
1783.7281177539
 20
2156.9541607783
 30
0.0
 11
1783.7281177539
 21
2154.7185246633
 31
0.0
  0
LINE
  5
1D4
330
1F
100
AcDbEntity
  8
0
  6
Continuous
 62
     7
370
    15
100
AcDbLine
 10
1783.7281177539
 20
2164.7185244397
 30
0.0
 11
1783.7281177539
 21
2156.9541607783
 31
0.0
  0
LINE
  5
1D5
330
1F
100
AcDbEntity
  8
0
  6
Continuous
 62
     7
370
    15
100
AcDbLine
 10
-632.9717946451
 20
2168.1935241246
 30
0.0
 11
-632.9717946451
 21
2151.2435235814
 31
0.0
  0
LINE
  5
1D6
330
1F
100
AcDbEntity
  8
0
  6
Continuous
 62
     7
370
    15
100
AcDbLine
 10
-633.2717941355
 20
2151.5435249345
 30
0.0
 11
-633.2717941355
 21
2167.8935241685
 31
0.0
  0
LINE
  5
1D7
330
1F
100
AcDbEntity
  8
0
  6
Continuous
 62
     7
370
    15
100
AcDbLine
 10
1856.4281414051
 20
2151.2435235814
 30
0.0
 11
1856.4281414051
 21
2168.1935241246
 31
0.0
  0
LINE
  5
1D8
330
1F
100
AcDbEntity
  8
0
  6
Continuous
 62
     7
370
    15
100
AcDbLine
 10
1856.7283103962
 20
2167.8935241685
 30
0.0
 11
1856.7283103962
 21
2151.5435249345
 31
0.0
  0
CIRCLE
  5
1D9
330
1F
100
AcDbEntity
  8
0
  6
Continuous
 62
     7
370
    15
100
AcDbCircle
 10
-612.771794508
 20
2168.7185240523
 30
0.0
 40
18.00000000000001
  0
CIRCLE
  5
1DA
330
1F
100
AcDbEntity
  8
0
  6
Continuous
 62
     7
370
    15
100
AcDbCircle
 10
-612.3214814918
 20
2159.7297967682
 30
0.0
 40
1.299999999999854
  0
CIRCLE
  5
1DB
330
1F
100
AcDbEntity
  8
0
  6
Continuous
 62
     7
370
    15
100
AcDbCircle
 10
-621.7605217921
 20
2168.2682110361
 30
0.0
 40
1.300000000000195
  0
CIRCLE
  5
1DC
330
1F
100
AcDbEntity
  8
0
  6
Continuous
 62
     7
370
    15
100
AcDbCircle
 10
-613.2221075242
 20
2177.7072513364
 30
0.0
 40
1.29999999999999
  0
CIRCLE
  5
1DD
330
1F
100
AcDbEntity
  8
0
  6
Continuous
 62
     7
370
    15
100
AcDbCircle
 10
-603.7830672239
 20
2169.1688370685
 30
0.0
 40
1.300000000000081
  0
CIRCLE
  5
1DE
330
1F
100
AcDbEntity
  8
0
  6
Continuous
 62
     7
370
    15
100
AcDbCircle
 10
-612.771794508
 20
2168.7185240523
 30
0.0
 40
20.00000000000001
  0
CIRCLE
  5
1DF
330
1F
100
AcDbEntity
  8
0
  6
Continuous
 62
     7
370
    15
100
AcDbCircle
 10
1844.3534745822
 20
2172.5889248341
 30
0.0
 40
1.29999999999966
  0
CIRCLE
  5
1E0
330
1F
100
AcDbEntity
  8
0
  6
Continuous
 62
     7
370
    15
100
AcDbCircle
 10
1836.228205492
 20
2168.7185240523
 30
0.0
 40
18.00000000000004
  0
CIRCLE
  5
1E1
330
1F
100
AcDbEntity
  8
0
  6
Continuous
 62
     7
370
    15
100
AcDbCircle
 10
1840.0986062738
 20
2160.5932549621
 30
0.0
 40
1.299999999999856
  0
CIRCLE
  5
1E2
330
1F
100
AcDbEntity
  8
0
  6
Continuous
 62
     7
370
    15
100
AcDbCircle
 10
1828.1029364018
 20
2164.8481232705
 30
0.0
 40
1.300000000000071
  0
CIRCLE
  5
1E3
330
1F
100
AcDbEntity
  8
0
  6
Continuous
 62
     7
370
    15
100
AcDbCircle
 10
1832.3578047102
 20
2176.8437931425
 30
0.0
 40
1.300000000000071
  0
CIRCLE
  5
1E4
330
1F
100
AcDbEntity
  8
0
  6
Continuous
 62
     7
370
    15
100
AcDbCircle
 10
1836.228205492
 20
2168.7185240523
 30
0.0
 40
20.00000000000014
  0
LINE
  5
1E5
330
1F
100
AcDbEntity
  8
0
  6
Continuous
 62
     7
370
    15
100
AcDbLine
 10
1769.7281787891
 20
2157.3963322477
 30
0.0
 11
1769.7281787891
 21
2160.0407155962
 31
0.0
  0
CIRCLE
  5
1E6
330
1F
100
AcDbEntity
  8
0
  6
Continuous
 62
     7
370
    15
100
AcDbCircle
 10
192.228205492
 20
2153.7185240523
 30
0.0
 40
15.00000000000017
  0
CIRCLE
  5
1E7
330
1F
100
AcDbEntity
  8
0
  6
Continuous
 62
     7
370
    15
100
AcDbCircle
 10
192.228205492
 20
2153.7185240523
 30
0.0
 40
13.00000000000013
  0
CIRCLE
  5
1E8
330
1F
100
AcDbEntity
  8
0
  6
Continuous
 62
     7
370
    15
100
AcDbCircle
 10
198.8955117857
 20
2154.7718648259
 30
0.0
 40
1.25000000000032
  0
CIRCLE
  5
1E9
330
1F
100
AcDbEntity
  8
0
  6
Continuous
 62
     7
370
    15
100
AcDbCircle
 10
191.1748647184
 20
2160.3858303461
 30
0.0
 40
1.249999999999867
  0
CIRCLE
  5
1EA
330
1F
100
AcDbEntity
  8
0
  6
Continuous
 62
     7
370
    15
100
AcDbCircle
 10
185.5608991982
 20
2152.6651832787
 30
0.0
 40
1.249999999999867
  0
CIRCLE
  5
1EB
330
1F
100
AcDbEntity
  8
0
  6
Continuous
 62
     7
370
    15
100
AcDbCircle
 10
193.2815462656
 20
2147.0512177586
 30
0.0
 40
1.250000000000302
  0
CIRCLE
  5
1EC
330
1F
100
AcDbEntity
  8
0
  6
Continuous
 62
     7
370
    15
100
AcDbCircle
 10
-558.771794508
 20
2153.7185240523
 30
0.0
 40
15.00000000000016
  0
CIRCLE
  5
1ED
330
1F
100
AcDbEntity
  8
0
  6
Continuous
 62
     7
370
    15
100
AcDbCircle
 10
-558.771794508
 20
2153.7185240523
 30
0.0
 40
13.00000000000013
  0
CIRCLE
  5
1EE
330
1F
100
AcDbEntity
  8
0
  6
Continuous
 62
     7
370
    15
100
AcDbCircle
 10
-552.1044882143
 20
2154.7718648259
 30
0.0
 40
1.250000000000316
  0
CIRCLE
  5
1EF
330
1F
100
AcDbEntity
  8
0
  6
Continuous
 62
     7
370
    15
100
AcDbCircle
 10
-559.8251352816
 20
2160.3858303461
 30
0.0
 40
1.249999999999867
  0
CIRCLE
  5
1F0
330
1F
100
AcDbEntity
  8
0
  6
Continuous
 62
     7
370
    15
100
AcDbCircle
 10
-565.4391008018
 20
2152.6651832787
 30
0.0
 40
1.249999999999849
  0
CIRCLE
  5
1F1
330
1F
100
AcDbEntity
  8
0
  6
Continuous
 62
     7
370
    15
100
AcDbCircle
 10
-557.7184537344
 20
2147.0512177586
 30
0.0
 40
1.250000000000316
  0
LWPOLYLINE
  5
1F2
330
1F
100
AcDbEntity
  8
0
  6
Continuous
 62
     7
370
    15
100
AcDbPolyline
 90
        3
 70
   128
 43
0.0
 10
199.5221922893
 20
2155.8534269021
 10
199.8026917476
 20
2154.3408565955
 10
199.8251030941
 20
2153.9361689971
  0
LWPOLYLINE
  5
1F3
330
1F
100
AcDbEntity
  8
0
  6
Continuous
 62
     7
370
    15
100
AcDbPolyline
 90
        3
 70
   128
 43
0.0
 10
194.3631122608
 20
2146.4245420681
 10
193.2597110767
 20
2146.1888485388
 10
192.4458692569
 20
2146.1216405765
  0
LWPOLYLINE
  5
1F4
330
1F
100
AcDbEntity
  8
0
  6
Continuous
 62
     7
370
    15
100
AcDbPolyline
 90
        3
 70
   128
 43
0.0
 10
184.9341938991
 20
2151.5836220966
 10
184.7653935451
 20
2152.280893995
 10
184.631342699
 20
2153.500878139
  0
LWPOLYLINE
  5
1F5
330
1F
100
AcDbEntity
  8
0
  6
Continuous
 62
     7
370
    15
100
AcDbPolyline
 90
        3
 70
   128
 43
0.0
 10
190.0932739276
 20
2161.0125069306
 10
190.3886745472
 20
2161.0925364108
 10
192.0105765361
 20
2161.3154065595
  0
ARC
  5
1F6
330
1F
100
AcDbEntity
  8
0
  6
Continuous
 62
     7
370
    15
100
AcDbCircle
 10
192.228205492
 20
2153.7185240523
 30
0.0
 40
7.500000000000036
100
AcDbArc
 50
90.9184003326
 51
107.0370516422
  0
LWPOLYLINE
  5
1F7
330
1F
100
AcDbEntity
  8
0
  6
Continuous
 62
     7
370
    15
100
AcDbPolyline
 90
        3
 70
   128
 43
0.0
 10
184.7291539211
 20
2153.5983093814
 10
184.8636219997
 20
2152.2998110191
 10
185.0573370952
 20
2151.5211005495
  0
LWPOLYLINE
  5
1F8
330
1F
100
AcDbEntity
  8
0
  6
Continuous
 62
     7
370
    15
100
AcDbPolyline
 90
        3
 70
   128
 43
0.0
 10
192.3484156627
 20
2146.2194871889
 10
193.2461212177
 20
2146.2879226343
 10
194.4256375331
 20
2146.5476573245
  0
LWPOLYLINE
  5
1F9
330
1F
100
AcDbEntity
  8
0
  6
Continuous
 62
     7
370
    15
100
AcDbPolyline
 90
        3
 70
   128
 43
0.0
 10
199.7272322673
 20
2153.8387377546
 10
199.7030327816
 20
2154.3326684074
 10
199.3990490932
 20
2155.9159484492
  0
ARC
  5
1FA
330
1F
100
AcDbEntity
  8
0
  6
Continuous
 62
     7
370
    15
100
AcDbCircle
 10
192.228205492
 20
2153.7185240523
 30
0.0
 40
6.425000000000131
100
AcDbArc
 50
88.4616106162
 51
109.4938413701
  0
LWPOLYLINE
  5
1FB
330
1F
100
AcDbEntity
  8
0
  6
Continuous
 62
     7
370
    15
100
AcDbPolyline
 90
        3
 70
   128
 43
0.0
 10
185.8054945964
 20
2153.8910128908
 10
185.8998487491
 20
2152.6084718094
 10
186.17152672
 20
2151.5744671957
  0
ARC
  5
1FC
330
1F
100
AcDbEntity
  8
0
  6
Continuous
 62
     7
370
    15
100
AcDbCircle
 10
192.228205492
 20
2153.7185240523
 30
0.0
 40
6.425000000000167
100
AcDbArc
 50
268.4616151866
 51
289.4938368423
  0
LWPOLYLINE
  5
1FD
330
1F
100
AcDbEntity
  8
0
  6
Continuous
 62
     7
370
    15
100
AcDbPolyline
 90
        3
 70
   128
 43
0.0
 10
198.650891592
 20
2153.5460342453
 10
198.5565970439
 20
2154.8285771893
 10
198.2849190731
 20
2155.862581803
  0
ARC
  5
1FE
330
1F
100
AcDbEntity
  8
0
  6
Continuous
 62
     7
370
    15
100
AcDbCircle
 10
192.228205492
 20
2153.7185240523
 30
0.0
 40
6.525000000000054
100
AcDbArc
 50
358.3470335013
 51
19.6084185184
  0
LWPOLYLINE
  5
1FF
330
1F
100
AcDbEntity
  8
0
  6
Continuous
 62
     7
370
    15
100
AcDbPolyline
 90
        3
 70
   128
 43
0.0
 10
194.417948534
 20
2147.5719203041
 10
193.2691286106
 20
2147.2770915167
 10
192.039961626
 20
2147.1962396787
  0
ARC
  5
200
330
1F
100
AcDbEntity
  8
0
  6
Continuous
 62
     7
370
    15
100
AcDbCircle
 10
192.228205492
 20
2153.7185240523
 30
0.0
 40
6.524999999999974
100
AcDbArc
 50
178.3470335077
 51
199.608418511
  0
ARC
  5
201
330
1F
100
AcDbEntity
  8
0
  6
Continuous
 62
     7
370
    15
100
AcDbCircle
 10
192.228205492
 20
2153.7185240523
 30
0.0
 40
6.525000000000113
100
AcDbArc
 50
88.3470306294
 51
109.6084213745
  0
LWPOLYLINE
  5
202
330
1F
100
AcDbEntity
  8
0
  6
Continuous
 62
     7
370
    15
100
AcDbPolyline
 90
        3
 70
   128
 43
0.0
 10
-551.4778097372
 20
2155.8534269021
 10
-551.1973177295
 20
2154.3408565955
 10
-551.1749138337
 20
2153.9361689971
  0
LWPOLYLINE
  5
203
330
1F
100
AcDbEntity
  8
0
  6
Continuous
 62
     7
370
    15
100
AcDbPolyline
 90
        3
 70
   128
 43
0.0
 10
-556.6368897658
 20
2146.4245402054
 10
-557.7402984004
 20
2146.1888485388
 10
-558.5541476708
 20
2146.1216405765
  0
LWPOLYLINE
  5
204
330
1F
100
AcDbEntity
  8
0
  6
Continuous
 62
     7
370
    15
100
AcDbPolyline
 90
        3
 70
   128
 43
0.0
 10
-566.0657783251
 20
2151.5836220966
 10
-566.2345861297
 20
2152.280893995
 10
-566.3686742287
 20
2153.500878139
  0
LWPOLYLINE
  5
205
330
1F
100
AcDbEntity
  8
0
  6
Continuous
 62
     7
370
    15
100
AcDbPolyline
 90
        3
 70
   128
 43
0.0
 10
-560.9066982966
 20
2161.0125069306
 10
-560.6113423806
 20
2161.0925364108
 10
-558.9894403916
 20
2161.3154065595
  0
ARC
  5
206
330
1F
100
AcDbEntity
  8
0
  6
Continuous
 62
     7
370
    15
100
AcDbCircle
 10
-558.771794508
 20
2153.7185240523
 30
0.0
 40
7.500000000000009
100
AcDbArc
 50
90.9184095858
 51
107.0370424342
  0
LWPOLYLINE
  5
207
330
1F
100
AcDbEntity
  8
0
  6
Continuous
 62
     7
370
    15
100
AcDbPolyline
 90
        3
 70
   128
 43
0.0
 10
-566.2708332043
 20
2153.5983093814
 10
-566.1363874774
 20
2152.2998110191
 10
-565.9426574808
 20
2151.5211005495
  0
LWPOLYLINE
  5
208
330
1F
100
AcDbEntity
  8
0
  6
Continuous
 62
     7
370
    15
100
AcDbPolyline
 90
        3
 70
   128
 43
0.0
 10
-558.6515789133
 20
2146.2194871889
 10
-557.7538733583
 20
2146.2879226343
 10
-556.574371944
 20
2146.5476573245
  0
LWPOLYLINE
  5
209
330
1F
100
AcDbEntity
  8
0
  6
Continuous
 62
     7
370
    15
100
AcDbPolyline
 90
        3
 70
   128
 43
0.0
 10
-551.2727548581
 20
2153.8387377546
 10
-551.2969841462
 20
2154.3326684074
 10
-551.6009305816
 20
2155.9159484492
  0
ARC
  5
20A
330
1F
100
AcDbEntity
  8
0
  6
Continuous
 62
     7
370
    15
100
AcDbCircle
 10
-558.771794508
 20
2153.7185240523
 30
0.0
 40
6.424999999999753
100
AcDbArc
 50
88.4616168189
 51
109.4938352011
  0
LWPOLYLINE
  5
20B
330
1F
100
AcDbEntity
  8
0
  6
Continuous
 62
     7
370
    15
100
AcDbPolyline
 90
        3
 70
   128
 43
0.0
 10
-565.1944776278
 20
2153.8910128908
 10
-565.1001756292
 20
2152.6084718094
 10
-564.8284976583
 20
2151.5744671957
  0
ARC
  5
20C
330
1F
100
AcDbEntity
  8
0
  6
Continuous
 62
     7
370
    15
100
AcDbCircle
 10
-558.771794508
 20
2153.7185240523
 30
0.0
 40
6.425000000000079
100
AcDbArc
 50
268.4616168215
 51
289.4938351983
  0
LWPOLYLINE
  5
20D
330
1F
100
AcDbEntity
  8
0
  6
Continuous
 62
     7
370
    15
100
AcDbPolyline
 90
        3
 70
   128
 43
0.0
 10
-552.3491104346
 20
2153.5460342453
 10
-552.4434124332
 20
2154.8285771893
 10
-552.7150904041
 20
2155.862581803
  0
ARC
  5
20E
330
1F
100
AcDbEntity
  8
0
  6
Continuous
 62
     7
370
    15
100
AcDbCircle
 10
-558.771794508
 20
2153.7185240523
 30
0.0
 40
6.524999999999897
100
AcDbArc
 50
358.3470335022
 51
19.6084185178
  0
LWPOLYLINE
  5
20F
330
1F
100
AcDbEntity
  8
0
  6
Continuous
 62
     7
370
    15
100
AcDbPolyline
 90
        3
 70
   128
 43
0.0
 10
-556.5820683938
 20
2147.5719203041
 10
-557.7308510642
 20
2147.2770915167
 10
-558.9600105982
 20
2147.1962396787
  0
ARC
  5
210
330
1F
100
AcDbEntity
  8
0
  6
Continuous
 62
     7
370
    15
100
AcDbCircle
 10
-558.771794508
 20
2153.7185240523
 30
0.0
 40
6.525000000000072
100
AcDbArc
 50
178.3470335022
 51
199.6084185177
  0
ARC
  5
211
330
1F
100
AcDbEntity
  8
0
  6
Continuous
 62
     7
370
    15
100
AcDbCircle
 10
-558.771794508
 20
2153.7185240523
 30
0.0
 40
6.525000000000269
100
AcDbArc
 50
88.3470335018
 51
109.6084185182
  0
LINE
  5
212
330
1F
100
AcDbEntity
  8
0
  6
Continuous
 62
     7
370
    15
100
AcDbLine
 10
-543.7717934351
 20
2212.2185238437
 30
0.0
 11
-543.7717934351
 21
2138.7185239033
 31
0.0
  0
LINE
  5
213
330
1F
100
AcDbEntity
  8
0
  6
Continuous
 62
     7
370
    15
100
AcDbLine
 10
-573.7717946272
 20
2138.7185239033
 30
0.0
 11
-573.7717946272
 21
2212.2185238437
 31
0.0
  0
LINE
  5
214
330
1F
100
AcDbEntity
  8
0
  6
Continuous
 62
     7
370
    15
100
AcDbLine
 10
207.2281787891
 20
2212.2185238437
 30
0.0
 11
207.2281787891
 21
2138.7185239033
 31
0.0
  0
LINE
  5
215
330
1F
100
AcDbEntity
  8
0
  6
Continuous
 62
     7
370
    15
100
AcDbLine
 10
177.2282073993
 20
2138.7185239033
 30
0.0
 11
177.2282073993
 21
2212.2185238437
 31
0.0
  0
LINE
  5
216
330
1F
100
AcDbEntity
  8
0
  6
Continuous
 62
     7
370
    15
100
AcDbLine
 10
291.728193571
 20
88.7184859053
 30
0.0
 11
291.728193571
 21
2138.7185239033
 31
0.0
  0
LINE
  5
217
330
1F
100
AcDbEntity
  8
0
  6
Continuous
 62
     7
370
    15
100
AcDbLine
 10
-658.271794508
 20
88.7184859053
 30
0.0
 11
291.728193571
 21
88.7184859053
 31
0.0
  0
LINE
  5
218
330
1F
100
AcDbEntity
  8
0
  6
Continuous
 62
     7
370
    15
100
AcDbLine
 10
-658.271794508
 20
2138.7185239033
 30
0.0
 11
-658.271794508
 21
88.7184859053
 31
0.0
  0
LINE
  5
219
330
1F
100
AcDbEntity
  8
0
  6
Continuous
 62
     7
370
    15
100
AcDbLine
 10
291.728193571
 20
2138.7185239033
 30
0.0
 11
-658.271794508
 21
2138.7185239033
 31
0.0
  0
ARC
  5
21A
330
1F
100
AcDbEntity
  8
0
  6
Continuous
 62
     7
370
    15
100
AcDbCircle
 10
192.228205492
 20
2212.2185240523
 30
0.0
 40
29.00000000000054
100
AcDbArc
 50
301.1473899215
 51
238.8526100785
  0
ARC
  5
21B
330
1F
100
AcDbEntity
  8
0
  6
Continuous
 62
     7
370
    15
100
AcDbCircle
 10
-558.771794508
 20
2212.2185240523
 30
0.0
 40
29.00000000000053
100
AcDbArc
 50
301.1473899215
 51
238.8526100785
  0
CIRCLE
  5
21C
330
1F
100
AcDbEntity
  8
0
  6
Continuous
 62
     7
370
    15
100
AcDbCircle
 10
-558.771794508
 20
2212.2185240523
 30
0.0
 40
15.00000000000006
  0
CIRCLE
  5
21D
330
1F
100
AcDbEntity
  8
0
  6
Continuous
 62
     7
370
    15
100
AcDbCircle
 10
-558.771794508
 20
2212.2185240523
 30
0.0
 40
13.00000000000006
  0
CIRCLE
  5
21E
330
1F
100
AcDbEntity
  8
0
  6
Continuous
 62
     7
370
    15
100
AcDbCircle
 10
-552.0341037386
 20
2211.8110647343
 30
0.0
 40
1.24999999999998
  0
CIRCLE
  5
21F
330
1F
100
AcDbEntity
  8
0
  6
Continuous
 62
     7
370
    15
100
AcDbCircle
 10
-559.1792538261
 20
2205.4808332829
 30
0.0
 40
1.250000000000148
  0
CIRCLE
  5
220
330
1F
100
AcDbEntity
  8
0
  6
Continuous
 62
     7
370
    15
100
AcDbCircle
 10
-565.5094852774
 20
2212.6259833704
 30
0.0
 40
1.249999999999866
  0
CIRCLE
  5
221
330
1F
100
AcDbEntity
  8
0
  6
Continuous
 62
     7
370
    15
100
AcDbCircle
 10
-558.36433519
 20
2218.9562148217
 30
0.0
 40
1.249999999999952
  0
CIRCLE
  5
222
330
1F
100
AcDbEntity
  8
0
  6
Continuous
 62
     7
370
    15
100
AcDbCircle
 10
198.9658962614
 20
2211.8110647343
 30
0.0
 40
1.249999999999923
  0
CIRCLE
  5
223
330
1F
100
AcDbEntity
  8
0
  6
Continuous
 62
     7
370
    15
100
AcDbCircle
 10
191.8207461739
 20
2205.4808332829
 30
0.0
 40
1.249999999999978
  0
CIRCLE
  5
224
330
1F
100
AcDbEntity
  8
0
  6
Continuous
 62
     7
370
    15
100
AcDbCircle
 10
185.4905147226
 20
2212.6259833704
 30
0.0
 40
1.250000000000036
  0
CIRCLE
  5
225
330
1F
100
AcDbEntity
  8
0
  6
Continuous
 62
     7
370
    15
100
AcDbCircle
 10
192.63566481
 20
2218.9562148217
 30
0.0
 40
1.249999999999895
  0
CIRCLE
  5
226
330
1F
100
AcDbEntity
  8
0
  6
Continuous
 62
     7
370
    15
100
AcDbCircle
 10
192.228205492
 20
2212.2185240523
 30
0.0
 40
13.00000000000003
  0
CIRCLE
  5
227
330
1F
100
AcDbEntity
  8
0
  6
Continuous
 62
     7
370
    15
100
AcDbCircle
 10
192.228205492
 20
2212.2185240523
 30
0.0
 40
15.00000000000003
  0
LINE
  5
228
330
1F
100
AcDbEntity
  8
0
  6
Continuous
 62
     7
370
    15
100
AcDbLine
 10
207.2281787891
 20
84.7185374038
 30
0.0
 11
207.2281787891
 21
80.7185889022
 31
0.0
  0
LINE
  5
229
330
1F
100
AcDbEntity
  8
0
  6
Continuous
 62
     7
370
    15
100
AcDbLine
 10
207.2281787891
 20
84.7185374038
 30
0.0
 11
271.7282126445
 21
84.7185374038
 31
0.0
  0
LINE
  5
22A
330
1F
100
AcDbEntity
  8
0
  6
Continuous
 62
     7
370
    15
100
AcDbLine
 10
271.7282126445
 20
84.7185374038
 30
0.0
 11
271.7282126445
 21
80.7185889022
 31
0.0
  0
LINE
  5
22B
330
1F
100
AcDbEntity
  8
0
  6
Continuous
 62
     7
370
    15
100
AcDbLine
 10
207.2281787891
 20
80.7185889022
 30
0.0
 11
271.7282126445
 21
80.7185889022
 31
0.0
  0
CIRCLE
  5
22C
330
1F
100
AcDbEntity
  8
0
  6
Continuous
 62
     7
370
    15
100
AcDbCircle
 10
995.1691417946
 20
2176.2130094424
 30
0.0
 40
1.250000000000069
  0
CIRCLE
  5
22D
330
1F
100
AcDbEntity
  8
0
  6
Continuous
 62
     7
370
    15
100
AcDbCircle
 10
994.222690882
 20
2170.2775877497
 30
0.0
 40
1.249999999999701
  0
CIRCLE
  5
22E
330
1F
100
AcDbEntity
  8
0
  6
Continuous
 62
     7
370
    15
100
AcDbCircle
 10
988.2872691893
 20
2171.2240386623
 30
0.0
 40
1.250000000000002
  0
CIRCLE
  5
22F
330
1F
100
AcDbEntity
  8
0
  6
Continuous
 62
     7
370
    15
100
AcDbCircle
 10
991.728205492
 20
2173.7185240523
 30
0.0
 40
6.449999999999926
  0
CIRCLE
  5
230
330
1F
100
AcDbEntity
  8
0
  6
Continuous
 62
     7
370
    15
100
AcDbCircle
 10
989.2337201019
 20
2177.159460355
 30
0.0
 40
1.250000000000002
  0
CIRCLE
  5
231
330
1F
100
AcDbEntity
  8
0
  6
Continuous
 62
     7
370
    15
100
AcDbCircle
 10
991.728205492
 20
2173.7185240523
 30
0.0
 40
7.449999999999867
  0
CIRCLE
  5
232
330
1F
100
AcDbEntity
  8
0
  6
Continuous
 62
     7
370
    15
100
AcDbCircle
 10
1751.728205492
 20
2173.7185240523
 30
0.0
 40
6.44999999999986
  0
CIRCLE
  5
233
330
1F
100
AcDbEntity
  8
0
  6
Continuous
 62
     7
370
    15
100
AcDbCircle
 10
1751.728205492
 20
2173.7185240523
 30
0.0
 40
7.449999999999734
  0
CIRCLE
  5
234
330
1F
100
AcDbEntity
  8
0
  6
Continuous
 62
     7
370
    15
100
AcDbCircle
 10
1755.1691417946
 20
2176.2130094424
 30
0.0
 40
1.250000000000002
  0
CIRCLE
  5
235
330
1F
100
AcDbEntity
  8
0
  6
Continuous
 62
     7
370
    15
100
AcDbCircle
 10
1754.222690882
 20
2170.2775877497
 30
0.0
 40
1.249999999999634
  0
CIRCLE
  5
236
330
1F
100
AcDbEntity
  8
0
  6
Continuous
 62
     7
370
    15
100
AcDbCircle
 10
1749.2337201019
 20
2177.159460355
 30
0.0
 40
1.250000000000269
  0
CIRCLE
  5
237
330
1F
100
AcDbEntity
  8
0
  6
Continuous
 62
     7
370
    15
100
AcDbCircle
 10
1748.2872691893
 20
2171.2240386623
 30
0.0
 40
1.250000000000269
  0
CIRCLE
  5
238
330
1F
100
AcDbEntity
  8
0
  6
Continuous
 62
     7
370
    15
100
AcDbCircle
 10
-528.271794508
 20
2173.7185240523
 30
0.0
 40
6.449999999999926
  0
CIRCLE
  5
239
330
1F
100
AcDbEntity
  8
0
  6
Continuous
 62
     7
370
    15
100
AcDbCircle
 10
-528.271794508
 20
2173.7185240523
 30
0.0
 40
7.449999999999867
  0
CIRCLE
  5
23A
330
1F
100
AcDbEntity
  8
0
  6
Continuous
 62
     7
370
    15
100
AcDbCircle
 10
-524.8308582054
 20
2176.2130094424
 30
0.0
 40
1.250000000000002
  0
CIRCLE
  5
23B
330
1F
100
AcDbEntity
  8
0
  6
Continuous
 62
     7
370
    15
100
AcDbCircle
 10
-525.777309118
 20
2170.2775877497
 30
0.0
 40
1.249999999999701
  0
CIRCLE
  5
23C
330
1F
100
AcDbEntity
  8
0
  6
Continuous
 62
     7
370
    15
100
AcDbCircle
 10
-530.7662798981
 20
2177.159460355
 30
0.0
 40
1.250000000000069
  0
CIRCLE
  5
23D
330
1F
100
AcDbEntity
  8
0
  6
Continuous
 62
     7
370
    15
100
AcDbCircle
 10
-531.7127308107
 20
2171.2240386623
 30
0.0
 40
1.250000000000136
  0
CIRCLE
  5
23E
330
1F
100
AcDbEntity
  8
0
  6
Continuous
 62
     7
370
    15
100
AcDbCircle
 10
231.728205492
 20
2173.7185240523
 30
0.0
 40
6.449999999999909
  0
CIRCLE
  5
23F
330
1F
100
AcDbEntity
  8
0
  6
Continuous
 62
     7
370
    15
100
AcDbCircle
 10
231.728205492
 20
2173.7185240523
 30
0.0
 40
7.449999999999885
  0
CIRCLE
  5
240
330
1F
100
AcDbEntity
  8
0
  6
Continuous
 62
     7
370
    15
100
AcDbCircle
 10
235.1691417946
 20
2176.2130094424
 30
0.0
 40
1.250000000000036
  0
CIRCLE
  5
241
330
1F
100
AcDbEntity
  8
0
  6
Continuous
 62
     7
370
    15
100
AcDbCircle
 10
234.222690882
 20
2170.2775877497
 30
0.0
 40
1.249999999999751
  0
CIRCLE
  5
242
330
1F
100
AcDbEntity
  8
0
  6
Continuous
 62
     7
370
    15
100
AcDbCircle
 10
229.2337201019
 20
2177.159460355
 30
0.0
 40
1.250000000000052
  0
CIRCLE
  5
243
330
1F
100
AcDbEntity
  8
0
  6
Continuous
 62
     7
370
    15
100
AcDbCircle
 10
228.2872691893
 20
2171.2240386623
 30
0.0
 40
1.250000000000103
  0
ARC
  5
244
330
1F
100
AcDbEntity
  8
0
  6
Continuous
 62
     7
370
    15
100
AcDbCircle
 10
231.728205492
 20
2173.7185240523
 30
0.0
 40
14.99999999999942
100
AcDbArc
 50
56.4426902381
 51
123.5573097619
  0
ARC
  5
245
330
1F
100
AcDbEntity
  8
0
  6
Continuous
 62
     7
370
    15
100
AcDbCircle
 10
231.728205492
 20
2173.7185240523
 30
0.0
 40
14.9999999999994
100
AcDbArc
 50
236.4426902381
 51
303.5573097619
  0
ARC
  5
246
330
1F
100
AcDbEntity
  8
0
  6
Continuous
 62
     7
370
    15
100
AcDbCircle
 10
231.728205492
 20
2173.7185240523
 30
0.0
 40
29.99999999999989
100
AcDbArc
 50
215.2475069921
 51
335.3756816478
  0
ARC
  5
247
330
1F
100
AcDbEntity
  8
0
  6
Continuous
 62
     7
370
    15
100
AcDbCircle
 10
231.728205492
 20
2173.7185240523
 30
0.0
 40
30.00000000000007
100
AcDbArc
 50
24.6243183522
 51
115.3114661159
  0
ARC
  5
248
330
1F
100
AcDbEntity
  8
0
  6
Continuous
 62
     7
370
    15
100
AcDbCircle
 10
991.728205492
 20
2173.7185240523
 30
0.0
 40
14.9999999999995
100
AcDbArc
 50
56.4426902381
 51
123.5573097619
  0
ARC
  5
249
330
1F
100
AcDbEntity
  8
0
  6
Continuous
 62
     7
370
    15
100
AcDbCircle
 10
991.728205492
 20
2173.7185240523
 30
0.0
 40
14.99999999999956
100
AcDbArc
 50
236.4426902381
 51
303.5573097619
  0
ARC
  5
24A
330
1F
100
AcDbEntity
  8
0
  6
Continuous
 62
     7
370
    15
100
AcDbCircle
 10
991.728205492
 20
2173.7185240523
 30
0.0
 40
30.00000000000005
100
AcDbArc
 50
204.6243183522
 51
335.3756816478
  0
ARC
  5
24B
330
1F
100
AcDbEntity
  8
0
  6
Continuous
 62
     7
370
    15
100
AcDbCircle
 10
991.728205492
 20
2173.7185240523
 30
0.0
 40
29.99999999999993
100
AcDbArc
 50
24.6243183522
 51
155.3756816478
  0
ARC
  5
24C
330
1F
100
AcDbEntity
  8
0
  6
Continuous
 62
     7
370
    15
100
AcDbCircle
 10
1751.728205492
 20
2173.7185240523
 30
0.0
 40
14.99999999999937
100
AcDbArc
 50
56.4426902381
 51
123.5573097619
  0
ARC
  5
24D
330
1F
100
AcDbEntity
  8
0
  6
Continuous
 62
     7
370
    15
100
AcDbCircle
 10
1751.728205492
 20
2173.7185240523
 30
0.0
 40
14.9999999999995
100
AcDbArc
 50
236.4426902381
 51
303.5573097619
  0
ARC
  5
24E
330
1F
100
AcDbEntity
  8
0
  6
Continuous
 62
     7
370
    15
100
AcDbCircle
 10
1751.728205492
 20
2173.7185240523
 30
0.0
 40
29.99999999999984
100
AcDbArc
 50
204.6243183522
 51
323.805629699
  0
ARC
  5
24F
330
1F
100
AcDbEntity
  8
0
  6
Continuous
 62
     7
370
    15
100
AcDbCircle
 10
1751.728205492
 20
2173.7185240523
 30
0.0
 40
30.00000000000003
100
AcDbArc
 50
24.6243183522
 51
155.3756816478
  0
ARC
  5
250
330
1F
100
AcDbEntity
  8
0
  6
Continuous
 62
     7
370
    15
100
AcDbCircle
 10
-528.271794508
 20
2173.7185240523
 30
0.0
 40
14.99999999999943
100
AcDbArc
 50
56.4426902381
 51
123.5573097619
  0
ARC
  5
251
330
1F
100
AcDbEntity
  8
0
  6
Continuous
 62
     7
370
    15
100
AcDbCircle
 10
-528.271794508
 20
2173.7185240523
 30
0.0
 40
14.99999999999943
100
AcDbArc
 50
236.4426902381
 51
303.5573097619
  0
ARC
  5
252
330
1F
100
AcDbEntity
  8
0
  6
Continuous
 62
     7
370
    15
100
AcDbCircle
 10
-528.271794508
 20
2173.7185240523
 30
0.0
 40
29.99999999999989
100
AcDbArc
 50
238.8910774895
 51
335.3756816478
  0
ARC
  5
253
330
1F
100
AcDbEntity
  8
0
  6
Continuous
 62
     7
370
    15
100
AcDbCircle
 10
-528.271794508
 20
2173.7185240523
 30
0.0
 40
30.00000000000024
100
AcDbArc
 50
24.6243183522
 51
95.3833504544
  0
LINE
  5
254
330
1F
100
AcDbEntity
  8
0
  6
Continuous
 62
     8
370
    15
100
AcDbLine
 10
1786.0281417865
 20
2165.6685237573
 30
0.0
 11
1786.0281417865
 21
2153.7685234831
 31
0.0
  0
LINE
  5
255
330
1F
100
AcDbEntity
  8
0
  6
Continuous
 62
     8
370
    15
100
AcDbLine
 10
-578.5717939239
 20
2153.7685234831
 30
0.0
 11
-578.5717939239
 21
2165.6685237573
 31
0.0
  0
LINE
  5
256
330
1F
100
AcDbEntity
  8
0
  6
Continuous
 62
     8
370
    15
100
AcDbLine
 10
1777.2436092395
 20
2161.469648479
 30
0.0
 11
1777.2436092395
 21
2161.5321830646
 31
0.0
  0
LINE
  5
257
330
1F
100
AcDbEntity
  8
0
  6
Continuous
 62
     8
370
    15
100
AcDbLine
 10
1777.2436092395
 20
2155.9048657106
 30
0.0
 11
1777.2436092395
 21
2161.469648479
 31
0.0
  0
LINE
  5
258
330
1F
100
AcDbEntity
  8
0
  6
Continuous
 62
     8
370
    15
100
AcDbLine
 10
1780.051226427
 20
2160.913966483
 30
0.0
 11
1780.051226427
 21
2156.5230813609
 31
0.0
  0
LINE
  5
259
330
1F
100
AcDbEntity
  8
0
  6
Continuous
 62
     8
370
    15
100
AcDbLine
 10
1770.6534812946
 20
2161.0379143418
 30
0.0
 11
1770.6534812946
 21
2156.3991335021
 31
0.0
  0
LINE
  5
25A
330
1F
100
AcDbEntity
  8
0
  6
Continuous
 62
     8
370
    15
100
AcDbLine
 10
1782.7281902332
 20
2160.2185237021
 30
0.0
 11
1782.7281902332
 21
2157.2185241417
 31
0.0
  0
LINE
  5
25B
330
1F
100
AcDbEntity
  8
0
  6
Continuous
 62
     8
370
    15
100
AcDbLine
 10
221.0043023128
 20
88.7184859053
 30
0.0
 11
220.987493803
 21
84.7185374038
 31
0.0
  0
LINE
  5
25C
330
1F
100
AcDbEntity
  8
0
  6
Continuous
 62
     8
370
    15
100
AcDbLine
 10
247.4521348972
 20
88.7184859053
 30
0.0
 11
247.468943407
 21
84.7185374038
 31
0.0
  0
LINE
  5
25D
330
1F
100
AcDbEntity
  8
0
  6
Continuous
 62
     7
370
    15
100
AcDbLine
 10
-949.4776480648
 20
2157.3582150773
 30
0.0
 11
-949.4879578057
 21
2157.3685248182
 31
0.0
  0
LINE
  5
25E
330
1F
100
AcDbEntity
  8
0
  6
Continuous
 62
     7
370
    15
100
AcDbLine
 10
-952.0379562679
 20
2188.718523717
 30
0.0
 11
-954.8379589621
 21
2188.718523717
 31
0.0
  0
LINE
  5
25F
330
1F
100
AcDbEntity
  8
0
  6
Continuous
 62
     7
370
    15
100
AcDbLine
 10
-954.8379589621
 20
2148.7185236798
 30
0.0
 11
-952.0379562679
 21
2148.7185236798
 31
0.0
  0
LINE
  5
260
330
1F
100
AcDbEntity
  8
0
  6
Continuous
 62
     7
370
    15
100
AcDbLine
 10
-952.0379562679
 20
2148.7185236798
 30
0.0
 11
-951.8379566077
 21
2148.91852334
 31
0.0
  0
LINE
  5
261
330
1F
100
AcDbEntity
  8
0
  6
Continuous
 62
     7
370
    15
100
AcDbLine
 10
-951.8379566077
 20
2188.5185240568
 30
0.0
 11
-952.0379562679
 21
2188.718523717
 31
0.0
  0
LINE
  5
262
330
1F
100
AcDbEntity
  8
0
  6
Continuous
 62
     7
370
    15
100
AcDbLine
 10
-954.8379589621
 20
2188.718523717
 30
0.0
 11
-956.8379592899
 21
2186.7185243205
 31
0.0
  0
LINE
  5
263
330
1F
100
AcDbEntity
  8
0
  6
Continuous
 62
     7
370
    15
100
AcDbLine
 10
-956.8379592899
 20
2150.7185240076
 30
0.0
 11
-954.8379589621
 21
2148.7185236798
 31
0.0
  0
LINE
  5
264
330
1F
100
AcDbEntity
  8
0
  6
Continuous
 62
     7
370
    15
100
AcDbLine
 10
-904.6379576254
 20
2188.718523717
 30
0.0
 11
-951.5379589799
 21
2188.718523717
 31
0.0
  0
LINE
  5
265
330
1F
100
AcDbEntity
  8
0
  6
Continuous
 62
     7
370
    15
100
AcDbLine
 10
-951.5379589799
 20
2148.7185236798
 30
0.0
 11
-904.6379576254
 21
2148.7185236798
 31
0.0
  0
LINE
  5
266
330
1F
100
AcDbEntity
  8
0
  6
Continuous
 62
     7
370
    15
100
AcDbLine
 10
-951.5379589799
 20
2188.718523717
 30
0.0
 11
-951.8379566077
 21
2188.4185242267
 31
0.0
  0
LINE
  5
267
330
1F
100
AcDbEntity
  8
0
  6
Continuous
 62
     7
370
    15
100
AcDbLine
 10
-951.8379566077
 20
2149.0185231702
 30
0.0
 11
-951.5379589799
 21
2148.7185236798
 31
0.0
  0
LINE
  5
268
330
1F
100
AcDbEntity
  8
0
  6
Continuous
 62
     7
370
    15
100
AcDbLine
 10
-904.6379576254
 20
2148.7185236798
 30
0.0
 11
-904.337958135
 21
2149.0185231702
 31
0.0
  0
LINE
  5
269
330
1F
100
AcDbEntity
  8
0
  6
Continuous
 62
     7
370
    15
100
AcDbLine
 10
-904.337958135
 20
2188.4185242267
 30
0.0
 11
-904.6379576254
 21
2188.718523717
 31
0.0
  0
LINE
  5
26A
330
1F
100
AcDbEntity
  8
0
  6
Continuous
 62
     7
370
    15
100
AcDbLine
 10
-944.3379581723
 20
2138.7185239033
 30
0.0
 11
-942.8379569951
 21
2138.7185239033
 31
0.0
  0
LINE
  5
26B
330
1F
100
AcDbEntity
  8
0
  6
Continuous
 62
     7
370
    15
100
AcDbLine
 10
-946.3379585001
 20
2140.7185242311
 30
0.0
 11
-944.3379581723
 21
2138.7185239033
 31
0.0
  0
LINE
  5
26C
330
1F
100
AcDbEntity
  8
0
  6
Continuous
 62
     7
370
    15
100
AcDbLine
 10
-936.3379587236
 20
2227.2185244397
 30
0.0
 11
-942.3379578445
 21
2227.2185244397
 31
0.0
  0
LINE
  5
26D
330
1F
100
AcDbEntity
  8
0
  6
Continuous
 62
     7
370
    15
100
AcDbLine
 10
-928.3379574123
 20
2241.2185267345
 30
0.0
 11
-929.8379576582
 21
2241.2185267345
 31
0.0
  0
LINE
  5
26E
330
1F
100
AcDbEntity
  8
0
  6
Continuous
 62
     7
370
    15
100
AcDbLine
 10
-908.8379579413
 20
2241.2185267345
 30
0.0
 11
-910.3379581872
 21
2241.2185267345
 31
0.0
  0
LINE
  5
26F
330
1F
100
AcDbEntity
  8
0
  6
Continuous
 62
     7
370
    15
100
AcDbLine
 10
-927.3696324605
 20
2241.2185267345
 30
0.0
 11
-928.3379574123
 21
2241.2185267345
 31
0.0
  0
LINE
  5
270
330
1F
100
AcDbEntity
  8
0
  6
Continuous
 62
     7
370
    15
100
AcDbLine
 10
-911.2139192227
 20
2183.2185237468
 30
0.0
 11
-911.1447051916
 21
2183.2185237468
 31
0.0
  0
LINE
  5
271
330
1F
100
AcDbEntity
  8
0
  6
Continuous
 62
     7
370
    15
100
AcDbLine
 10
-910.3379581872
 20
2241.2185267345
 30
0.0
 11
-911.3583859805
 21
2241.2185267345
 31
0.0
  0
ARC
  5
272
330
1F
100
AcDbEntity
  8
0
  6
Continuous
 62
     7
370
    15
100
AcDbCircle
 10
-919.364009223
 20
2250.8185240523
 30
0.0
 40
12.49999999999999
100
AcDbArc
 50
230.1746287392
 51
309.8253712608
  0
LINE
  5
273
330
1F
100
AcDbEntity
  8
0
  6
Continuous
 62
     7
370
    15
100
AcDbLine
 10
-944.3379581723
 20
2197.2185232477
 30
0.0
 11
-942.3379578445
 21
2197.2185232477
 31
0.0
  0
LINE
  5
274
330
1F
100
AcDbEntity
  8
0
  6
Continuous
 62
     7
370
    15
100
AcDbLine
 10
-942.3379578445
 20
2227.2185244397
 30
0.0
 11
-944.3379581723
 21
2227.2185244397
 31
0.0
  0
LINE
  5
275
330
1F
100
AcDbEntity
  8
0
  6
Continuous
 62
     7
370
    15
100
AcDbLine
 10
-944.3379581723
 20
2227.2185244397
 30
0.0
 11
-946.3379585001
 21
2225.2185241119
 31
0.0
  0
LINE
  5
276
330
1F
100
AcDbEntity
  8
0
  6
Continuous
 62
     7
370
    15
100
AcDbLine
 10
-946.3379585001
 20
2199.2185235755
 30
0.0
 11
-944.3379581723
 21
2197.2185232477
 31
0.0
  0
LINE
  5
277
330
1F
100
AcDbEntity
  8
0
  6
Continuous
 62
     7
370
    15
100
AcDbLine
 10
-907.3379576955
 20
2197.2185232477
 30
0.0
 11
-905.3379573676
 21
2199.2185235755
 31
0.0
  0
LINE
  5
278
330
1F
100
AcDbEntity
  8
0
  6
Continuous
 62
     7
370
    15
100
AcDbLine
 10
-905.3379573676
 20
2225.2185241119
 30
0.0
 11
-907.3379576955
 21
2227.2185244397
 31
0.0
  0
LINE
  5
279
330
1F
100
AcDbEntity
  8
0
  6
Continuous
 62
     7
370
    15
100
AcDbLine
 10
-907.3379576955
 20
2227.2185244397
 30
0.0
 11
-908.3379578594
 21
2227.2185244397
 31
0.0
  0
LINE
  5
27A
330
1F
100
AcDbEntity
  8
0
  6
Continuous
 62
     7
370
    15
100
AcDbLine
 10
-908.3379578594
 20
2197.2185232477
 30
0.0
 11
-907.3379576955
 21
2197.2185232477
 31
0.0
  0
LINE
  5
27B
330
1F
100
AcDbEntity
  8
0
  6
Continuous
 62
     7
370
    15
100
AcDbLine
 10
-908.3379578594
 20
2221.9685249762
 30
0.0
 11
-908.8379579413
 21
2221.9685249762
 31
0.0
  0
LINE
  5
27C
330
1F
100
AcDbEntity
  8
0
  6
Continuous
 62
     7
370
    15
100
AcDbLine
 10
-908.8379579413
 20
2202.4685245739
 30
0.0
 11
-908.3379578594
 21
2202.4685245739
 31
0.0
  0
LINE
  5
27D
330
1F
100
AcDbEntity
  8
0
  6
Continuous
 62
     7
370
    15
100
AcDbLine
 10
-930.6379581619
 20
2197.2185232477
 30
0.0
 11
-930.3379577402
 21
2197.5185246007
 31
0.0
  0
LINE
  5
27E
330
1F
100
AcDbEntity
  8
0
  6
Continuous
 62
     7
370
    15
100
AcDbLine
 10
-930.3379577402
 20
2226.9185230867
 30
0.0
 11
-930.6379581619
 21
2227.2185244397
 31
0.0
  0
LINE
  5
27F
330
1F
100
AcDbEntity
  8
0
  6
Continuous
 62
     7
370
    15
100
AcDbLine
 10
-936.0379573706
 20
2197.2185232477
 30
0.0
 11
-930.6379581619
 21
2197.2185232477
 31
0.0
  0
LINE
  5
280
330
1F
100
AcDbEntity
  8
0
  6
Continuous
 62
     7
370
    15
100
AcDbLine
 10
-930.6379581619
 20
2227.2185244397
 30
0.0
 11
-936.0379573706
 21
2227.2185244397
 31
0.0
  0
LINE
  5
281
330
1F
100
AcDbEntity
  8
0
  6
Continuous
 62
     7
370
    15
100
AcDbLine
 10
-936.0379573706
 20
2227.2185244397
 30
0.0
 11
-936.3379587236
 21
2226.9185230867
 31
0.0
  0
LINE
  5
282
330
1F
100
AcDbEntity
  8
0
  6
Continuous
 62
     7
370
    15
100
AcDbLine
 10
-936.3379587236
 20
2197.5185246007
 30
0.0
 11
-936.0379573706
 21
2197.2185232477
 31
0.0
  0
LINE
  5
283
330
1F
100
AcDbEntity
  8
0
  6
Continuous
 62
     7
370
    15
100
AcDbLine
 10
-930.3379577402
 20
2202.4685245739
 30
0.0
 11
-929.8379576582
 21
2202.4685245739
 31
0.0
  0
LINE
  5
284
330
1F
100
AcDbEntity
  8
0
  6
Continuous
 62
     7
370
    15
100
AcDbLine
 10
-929.8379576582
 20
2221.9685249762
 30
0.0
 11
-930.3379577402
 21
2221.9685249762
 31
0.0
  0
LINE
  5
285
330
1F
100
AcDbEntity
  8
0
  6
Continuous
 62
     7
370
    15
100
AcDbLine
 10
-920.2497885496
 20
84.7185374038
 30
0.0
 11
-920.5290695469
 21
100.7185698287
 31
0.0
  0
LINE
  5
286
330
1F
100
AcDbEntity
  8
0
  6
Continuous
 62
     7
370
    15
100
AcDbLine
 10
-925.146845803
 20
100.7185698287
 30
0.0
 11
-925.4261270914
 21
84.7185374038
 31
0.0
  0
LINE
  5
287
330
1F
100
AcDbEntity
  8
0
  6
Continuous
 62
     7
370
    15
100
AcDbLine
 10
-929.3752635646
 20
2181.1685239696
 30
0.0
 11
-929.4334218654
 21
2181.1685239696
 31
0.0
  0
LINE
  5
288
330
1F
100
AcDbEntity
  8
0
  6
Continuous
 62
     7
370
    15
100
AcDbLine
 10
-929.4800224531
 20
2166.268524135
 30
0.0
 11
-929.3752635646
 21
2166.268524135
 31
0.0
  0
LINE
  5
289
330
1F
100
AcDbEntity
  8
0
  6
Continuous
 62
     7
370
    15
100
AcDbLine
 10
-888.837957457
 20
2181.2185238847
 30
0.0
 11
-904.337958135
 21
2181.2185238847
 31
0.0
  0
LINE
  5
28A
330
1F
100
AcDbEntity
  8
0
  6
Continuous
 62
     7
370
    15
100
AcDbLine
 10
-904.337958135
 20
2166.21852422
 30
0.0
 11
-888.837957457
 21
2166.21852422
 31
0.0
  0
LINE
  5
28B
330
1F
100
AcDbEntity
  8
0
  6
Continuous
 62
     7
370
    15
100
AcDbLine
 10
-886.8379589919
 20
2203.7185233818
 30
0.0
 11
-888.837957457
 21
2188.718523717
 31
0.0
  0
LINE
  5
28C
330
1F
100
AcDbEntity
  8
0
  6
Continuous
 62
     7
370
    15
100
AcDbLine
 10
-888.837957457
 20
2158.7185243876
 30
0.0
 11
-886.8379589919
 21
2143.7185247229
 31
0.0
  0
LINE
  5
28D
330
1F
100
AcDbEntity
  8
0
  6
Continuous
 62
     7
370
    15
100
AcDbLine
 10
-884.837958664
 20
2203.7185233818
 30
0.0
 11
-886.8379589919
 21
2203.7185233818
 31
0.0
  0
LINE
  5
28E
330
1F
100
AcDbEntity
  8
0
  6
Continuous
 62
     7
370
    15
100
AcDbLine
 10
-886.8379589919
 20
2143.7185247229
 30
0.0
 11
-884.837958664
 21
2143.7185247229
 31
0.0
  0
CIRCLE
  5
28F
330
1F
100
AcDbEntity
  8
0
  6
Continuous
 62
     7
370
    15
100
AcDbCircle
 10
-919.3379577998
 20
2173.7185240523
 30
0.0
 40
11.50000000000125
  0
CIRCLE
  5
290
330
1F
100
AcDbEntity
  8
0
  6
Continuous
 62
     7
370
    15
100
AcDbCircle
 10
-919.3379577998
 20
2173.7185240523
 30
0.0
 40
12.50000000000011
  0
CIRCLE
  5
291
330
1F
100
AcDbEntity
  8
0
  6
Continuous
 62
     7
370
    15
100
AcDbCircle
 10
-941.3379577998
 20
2159.7185240523
 30
0.0
 40
8.475000000000051
  0
CIRCLE
  5
292
330
1F
100
AcDbEntity
  8
0
  6
Continuous
 62
     7
370
    15
100
AcDbCircle
 10
-941.3379577998
 20
2159.7185240523
 30
0.0
 40
8.175000000000223
  0
CIRCLE
  5
293
330
1F
100
AcDbEntity
  8
0
  6
Continuous
 62
     7
370
    15
100
AcDbCircle
 10
-941.3379577998
 20
2159.7185240523
 30
0.0
 40
0.9999999999999073
  0
LINE
  5
294
330
1F
100
AcDbEntity
  8
0
  6
Continuous
 62
     7
370
    15
100
AcDbLine
 10
-954.8379589621
 20
2177.3194145677
 30
0.0
 11
-954.8379589621
 21
2148.7185236798
 31
0.0
  0
LINE
  5
295
330
1F
100
AcDbEntity
  8
0
  6
Continuous
 62
     7
370
    15
100
AcDbLine
 10
-954.8379589621
 20
2188.718523717
 30
0.0
 11
-954.8379589621
 21
2177.3194145677
 31
0.0
  0
LINE
  5
296
330
1F
100
AcDbEntity
  8
0
  6
Continuous
 62
     7
370
    15
100
AcDbLine
 10
-952.0379562679
 20
2177.3194145677
 30
0.0
 11
-952.0379562679
 21
2188.718523717
 31
0.0
  0
LINE
  5
297
330
1F
100
AcDbEntity
  8
0
  6
Continuous
 62
     7
370
    15
100
AcDbLine
 10
-952.0379562679
 20
2148.7185236798
 30
0.0
 11
-952.0379562679
 21
2177.3194145677
 31
0.0
  0
LINE
  5
298
330
1F
100
AcDbEntity
  8
0
  6
Continuous
 62
     7
370
    15
100
AcDbLine
 10
-951.8379566077
 20
2177.2334057638
 30
0.0
 11
-951.8379566077
 21
2148.91852334
 31
0.0
  0
LINE
  5
299
330
1F
100
AcDbEntity
  8
0
  6
Continuous
 62
     7
370
    15
100
AcDbLine
 10
-951.8379566077
 20
2188.5185240568
 30
0.0
 11
-951.8379566077
 21
2177.2334057638
 31
0.0
  0
LINE
  5
29A
330
1F
100
AcDbEntity
  8
0
  6
Continuous
 62
     7
370
    15
100
AcDbLine
 10
-956.8379592899
 20
2176.4593255972
 30
0.0
 11
-956.8379592899
 21
2186.7185243205
 31
0.0
  0
LINE
  5
29B
330
1F
100
AcDbEntity
  8
0
  6
Continuous
 62
     7
370
    15
100
AcDbLine
 10
-956.8379592899
 20
2150.7185240076
 30
0.0
 11
-956.8379592899
 21
2176.4593255972
 31
0.0
  0
SPLINE
  5
29C
330
1F
100
AcDbEntity
  8
0
  6
Continuous
 62
     7
370
    15
100
AcDbSpline
210
0.0
220
0.0
230
1.0
 70
    11
 71
     3
 72
    26
 73
    22
 74
     0
 42
0.000000001
 43
0.00000001
 40
0.0
 40
0.0
 40
0.0
 40
0.0
 40
0.0751766269762133
 40
0.1425843893302301
 40
0.1925173129833821
 40
0.2339917144107347
 40
0.2756147822189861
 40
0.3140664268721881
 40
0.3554839111829571
 40
0.4049621116963825
 40
0.4648662224251531
 40
0.5321654651758688
 40
0.5983285783697846
 40
0.6571683886013062
 40
0.7090974934165631
 40
0.7570957391340509
 40
0.8035164898335085
 40
0.849927526644113
 40
0.8977220855929627
 40
0.9485235851214496
 40
1.0
 40
1.0
 40
1.0
 40
1.0
 10
-924.0879576470328
 20
2158.718524387592
 30
0.0
 10
-924.1393307230159
 20
2158.317261459048
 30
0.0
 10
-924.2367679047796
 20
2157.556202710758
 30
0.0
 10
-924.8823855793856
 20
2156.706700832305
 30
0.0
 10
-925.6429424923443
 20
2156.196358955483
 30
0.0
 10
-926.4286255783115
 20
2155.9617998269
 30
0.0
 10
-927.201099889572
 20
2155.957950627808
 30
0.0
 10
-927.9228873136204
 20
2156.157769967334
 30
0.0
 10
-928.5741413915746
 20
2156.539608233799
 30
0.0
 10
-929.1497536333642
 20
2157.14342384783
 30
0.0
 10
-929.5569278189162
 20
2158.000671298128
 30
0.0
 10
-929.641590804451
 20
2159.05019348216
 30
0.0
 10
-929.3006229166197
 20
2160.097104432039
 30
0.0
 10
-928.6045583057477
 20
2160.906615069156
 30
0.0
 10
-927.7319831694199
 20
2161.375223210182
 30
0.0
 10
-926.8169655078509
 20
2161.516411799969
 30
0.0
 10
-925.940692320454
 20
2161.366149609601
 30
0.0
 10
-925.1667146721722
 20
2160.959018836116
 30
0.0
 10
-924.559304905014
 20
2160.334569221267
 30
0.0
 10
-924.1604274824957
 20
2159.554963775555
 30
0.0
 10
-924.1122202959858
 20
2158.998561386587
 30
0.0
 10
-924.0879576470328
 20
2158.718524387592
 30
0.0
  0
LINE
  5
29D
330
1F
100
AcDbEntity
  8
0
  6
Continuous
 62
     7
370
    15
100
AcDbLine
 10
-904.6379576254
 20
2168.7185241641
 30
0.0
 11
-904.6379576254
 21
2188.718523717
 31
0.0
  0
LINE
  5
29E
330
1F
100
AcDbEntity
  8
0
  6
Continuous
 62
     7
370
    15
100
AcDbLine
 10
-904.6379576254
 20
2148.7185236798
 30
0.0
 11
-904.6379576254
 21
2168.7185241641
 31
0.0
  0
LINE
  5
29F
330
1F
100
AcDbEntity
  8
0
  6
Continuous
 62
     7
370
    15
100
AcDbLine
 10
-951.5379589799
 20
2168.7185241641
 30
0.0
 11
-951.5379589799
 21
2148.7185236798
 31
0.0
  0
LINE
  5
2A0
330
1F
100
AcDbEntity
  8
0
  6
Continuous
 62
     7
370
    15
100
AcDbLine
 10
-951.5379589799
 20
2188.718523717
 30
0.0
 11
-951.5379589799
 21
2168.7185241641
 31
0.0
  0
SPLINE
  5
2A1
330
1F
100
AcDbEntity
  8
0
  6
Continuous
 62
     7
370
    15
100
AcDbSpline
210
0.0
220
0.0
230
1.0
 70
    11
 71
     3
 72
    30
 73
    26
 74
     0
 42
0.000000001
 43
0.00000001
 40
0.0
 40
0.0
 40
0.0
 40
0.0
 40
0.0308938954438171
 40
0.0618257197446916
 40
0.1230503225415178
 40
0.1604558849238082
 40
0.1978021737682474
 40
0.230227249978053
 40
0.2630171963434934
 40
0.2910111538527581
 40
0.3237657278643314
 40
0.3801502232172024
 40
0.419675760340849
 40
0.4591869074300112
 40
0.521215594763913
 40
0.5725883555897223
 40
0.6241656605120128
 40
0.6710349158738507
 40
0.7175564262455061
 40
0.7654167414368448
 40
0.8138867270392858
 40
0.8623882881210377
 40
0.9104160637290072
 40
0.9570804035975051
 40
1.0
 40
1.0
 40
1.0
 40
1.0
 10
-932.837958149947
 20
2159.718523620182
 30
0.0
 10
-932.8683597337974
 20
2159.184622872751
 30
0.0
 10
-932.9292002259377
 20
2158.116165900656
 30
0.0
 10
-933.5069266903398
 20
2156.179641601862
 30
0.0
 10
-934.5512175623827
 20
2154.434504870291
 30
0.0
 10
-936.0438665368813
 20
2152.991392656178
 30
0.0
 10
-937.4767551045214
 20
2152.083243785348
 30
0.0
 10
-939.1060237080977
 20
2151.452788258491
 30
0.0
 10
-940.8904858041924
 20
2151.164152377641
 30
0.0
 10
-942.7608447489855
 20
2151.276658114003
 30
0.0
 10
-944.8025146605919
 20
2151.842108127694
 30
0.0
 10
-946.5634620976284
 20
2152.894877466911
 30
0.0
 10
-948.0251745073178
 20
2154.366514681152
 30
0.0
 10
-949.2022893496544
 20
2156.206569584256
 30
0.0
 10
-949.9395296189986
 20
2158.637637394035
 30
0.0
 10
-949.7898324920072
 20
2161.617302009107
 30
0.0
 10
-948.6876990465913
 20
2164.305652479135
 30
0.0
 10
-946.7697182200575
 20
2166.450483278548
 30
0.0
 10
-944.3207615143641
 20
2167.842013270827
 30
0.0
 10
-941.5189708250384
 20
2168.376840098033
 30
0.0
 10
-938.6576356944503
 20
2167.955831446072
 30
0.0
 10
-936.0898284050228
 20
2166.609397050625
 30
0.0
 10
-934.1560786790543
 20
2164.531432320884
 30
0.0
 10
-933.0188677837924
 20
2162.091116313093
 30
0.0
 10
-932.8965571043544
 20
2160.487036872264
 30
0.0
 10
-932.837958149947
 20
2159.718523620182
 30
0.0
  0
LINE
  5
2A2
330
1F
100
AcDbEntity
  8
0
  6
Continuous
 62
     7
370
    15
100
AcDbLine
 10
-904.337958135
 20
2168.7185241641
 30
0.0
 11
-904.337958135
 21
2149.0185231702
 31
0.0
  0
LINE
  5
2A3
330
1F
100
AcDbEntity
  8
0
  6
Continuous
 62
     7
370
    15
100
AcDbLine
 10
-904.337958135
 20
2188.4185242267
 30
0.0
 11
-904.337958135
 21
2168.7185241641
 31
0.0
  0
CIRCLE
  5
2A4
330
1F
100
AcDbEntity
  8
0
  6
Continuous
 62
     7
370
    15
100
AcDbCircle
 10
-926.8379577998
 20
2158.7185240523
 30
0.0
 40
2.524999999999977
  0
CIRCLE
  5
2A5
330
1F
100
AcDbEntity
  8
0
  6
Continuous
 62
     7
370
    15
100
AcDbCircle
 10
-926.8379577998
 20
2158.7185240523
 30
0.0
 40
2.099999999999909
  0
LINE
  5
2A6
330
1F
100
AcDbEntity
  8
0
  6
Continuous
 62
     7
370
    15
100
AcDbLine
 10
-944.3379581723
 20
2148.7185236798
 30
0.0
 11
-944.3379581723
 21
2138.7185239033
 31
0.0
  0
LINE
  5
2A7
330
1F
100
AcDbEntity
  8
0
  6
Continuous
 62
     7
370
    15
100
AcDbLine
 10
-946.3379585001
 20
2140.7185242311
 30
0.0
 11
-946.3379585001
 21
2148.7185236798
 31
0.0
  0
LINE
  5
2A8
330
1F
100
AcDbEntity
  8
0
  6
Continuous
 62
     7
370
    15
100
AcDbLine
 10
-936.3379587236
 20
2138.7185239033
 30
0.0
 11
-936.3379587236
 21
2148.7185236798
 31
0.0
  0
LINE
  5
2A9
330
1F
100
AcDbEntity
  8
0
  6
Continuous
 62
     7
370
    15
100
AcDbLine
 10
-906.3379575315
 20
2138.7185239033
 30
0.0
 11
-906.3379575315
 21
2148.7185236798
 31
0.0
  0
LINE
  5
2AA
330
1F
100
AcDbEntity
  8
0
  6
Continuous
 62
     7
370
    15
100
AcDbLine
 10
-936.3379587236
 20
2227.2185244397
 30
0.0
 11
-936.3379587236
 21
2212.2185238437
 31
0.0
  0
LINE
  5
2AB
330
1F
100
AcDbEntity
  8
0
  6
Continuous
 62
     7
370
    15
100
AcDbLine
 10
-936.3379587236
 20
2212.2185238437
 30
0.0
 11
-942.3379578445
 21
2212.2185238437
 31
0.0
  0
LINE
  5
2AC
330
1F
100
AcDbEntity
  8
0
  6
Continuous
 62
     7
370
    15
100
AcDbLine
 10
-942.3379578445
 20
2227.2185244397
 30
0.0
 11
-942.3379578445
 21
2212.2185238437
 31
0.0
  0
LINE
  5
2AD
330
1F
100
AcDbEntity
  8
0
  6
Continuous
 62
     7
370
    15
100
AcDbLine
 10
-942.3379578445
 20
2212.2185238437
 30
0.0
 11
-942.3379578445
 21
2188.718523717
 31
0.0
  0
LINE
  5
2AE
330
1F
100
AcDbEntity
  8
0
  6
Continuous
 62
     7
370
    15
100
AcDbLine
 10
-942.3379578445
 20
2148.7185236798
 30
0.0
 11
-942.3379578445
 21
2138.7185239033
 31
0.0
  0
LINE
  5
2AF
330
1F
100
AcDbEntity
  8
0
  6
Continuous
 62
     7
370
    15
100
AcDbLine
 10
-936.3379587236
 20
2212.2185238437
 30
0.0
 11
-936.3379587236
 21
2188.718523717
 31
0.0
  0
LINE
  5
2B0
330
1F
100
AcDbEntity
  8
0
  6
Continuous
 62
     7
370
    15
100
AcDbLine
 10
-936.3379587236
 20
2148.7185236798
 30
0.0
 11
-936.3379587236
 21
2139.7185222046
 31
0.0
  0
LINE
  5
2B1
330
1F
100
AcDbEntity
  8
0
  6
Continuous
 62
     7
370
    15
100
AcDbLine
 10
-937.3379570249
 20
2138.7185239033
 30
0.0
 11
-936.3379587236
 21
2139.7185222046
 31
0.0
  0
LINE
  5
2B2
330
1F
100
AcDbEntity
  8
0
  6
Continuous
 62
     7
370
    15
100
AcDbLine
 10
-942.8379569951
 20
88.7184859053
 30
0.0
 11
-942.8379569951
 21
2138.7185239033
 31
0.0
  0
LINE
  5
2B3
330
1F
100
AcDbEntity
  8
0
  6
Continuous
 62
     7
370
    15
100
AcDbLine
 10
-942.8379569951
 20
2138.7185239033
 30
0.0
 11
-902.8379578892
 21
2138.7185239033
 31
0.0
  0
LINE
  5
2B4
330
1F
100
AcDbEntity
  8
0
  6
Continuous
 62
     7
370
    15
100
AcDbLine
 10
-902.8379578892
 20
88.7184859053
 30
0.0
 11
-902.8379578892
 21
2138.7185239033
 31
0.0
  0
LINE
  5
2B5
330
1F
100
AcDbEntity
  8
0
  6
Continuous
 62
     7
370
    15
100
AcDbLine
 10
-919.3379577998
 20
88.7184859053
 30
0.0
 11
-902.8379578892
 21
88.7184859053
 31
0.0
  0
LINE
  5
2B6
330
1F
100
AcDbEntity
  8
0
  6
Continuous
 62
     7
370
    15
100
AcDbLine
 10
-919.3379577998
 20
108.7184668319
 30
0.0
 11
-919.3379577998
 21
88.7184859053
 31
0.0
  0
LINE
  5
2B7
330
1F
100
AcDbEntity
  8
0
  6
Continuous
 62
     7
370
    15
100
AcDbLine
 10
-919.3379577998
 20
108.7184668319
 30
0.0
 11
-926.3379580158
 21
108.7184668319
 31
0.0
  0
LINE
  5
2B8
330
1F
100
AcDbEntity
  8
0
  6
Continuous
 62
     7
370
    15
100
AcDbLine
 10
-926.3379580158
 20
108.7184668319
 30
0.0
 11
-926.3379580158
 21
88.7184859053
 31
0.0
  0
LINE
  5
2B9
330
1F
100
AcDbEntity
  8
0
  6
Continuous
 62
     7
370
    15
100
AcDbLine
 10
-942.8379569951
 20
88.7184859053
 30
0.0
 11
-926.3379580158
 21
88.7184859053
 31
0.0
  0
LINE
  5
2BA
330
1F
100
AcDbEntity
  8
0
  6
Continuous
 62
     7
370
    15
100
AcDbLine
 10
-929.8379576582
 20
2241.2185267345
 30
0.0
 11
-929.8379576582
 21
2188.718523717
 31
0.0
  0
LINE
  5
2BB
330
1F
100
AcDbEntity
  8
0
  6
Continuous
 62
     7
370
    15
100
AcDbLine
 10
-928.3379574123
 20
2241.2185267345
 30
0.0
 11
-928.3379574123
 21
2188.718523717
 31
0.0
  0
LINE
  5
2BC
330
1F
100
AcDbEntity
  8
0
  6
Continuous
 62
     7
370
    15
100
AcDbLine
 10
-908.8379579413
 20
2188.718523717
 30
0.0
 11
-908.8379579413
 21
2241.2185267345
 31
0.0
  0
LINE
  5
2BD
330
1F
100
AcDbEntity
  8
0
  6
Continuous
 62
     7
370
    15
100
AcDbLine
 10
-910.3379581872
 20
2188.718523717
 30
0.0
 11
-910.3379581872
 21
2241.2185267345
 31
0.0
  0
LINE
  5
2BE
330
1F
100
AcDbEntity
  8
0
  6
Continuous
 62
     7
370
    15
100
AcDbLine
 10
-927.3696324605
 20
2188.718523717
 30
0.0
 11
-927.3696324605
 21
2241.2185267345
 31
0.0
  0
LINE
  5
2BF
330
1F
100
AcDbEntity
  8
0
  6
Continuous
 62
     7
370
    15
100
AcDbLine
 10
-911.3583859805
 20
2241.2185267345
 30
0.0
 11
-911.3583859805
 21
2188.718523717
 31
0.0
  0
LINE
  5
2C0
330
1F
100
AcDbEntity
  8
0
  6
Continuous
 62
     7
370
    15
100
AcDbLine
 10
-944.3379581723
 20
2227.2185244397
 30
0.0
 11
-944.3379581723
 21
2197.2185232477
 31
0.0
  0
LINE
  5
2C1
330
1F
100
AcDbEntity
  8
0
  6
Continuous
 62
     7
370
    15
100
AcDbLine
 10
-946.3379585001
 20
2199.2185235755
 30
0.0
 11
-946.3379585001
 21
2225.2185241119
 31
0.0
  0
LINE
  5
2C2
330
1F
100
AcDbEntity
  8
0
  6
Continuous
 62
     7
370
    15
100
AcDbLine
 10
-905.3379573676
 20
2212.2185238437
 30
0.0
 11
-905.3379573676
 21
2199.2185235755
 31
0.0
  0
LINE
  5
2C3
330
1F
100
AcDbEntity
  8
0
  6
Continuous
 62
     7
370
    15
100
AcDbLine
 10
-905.3379573676
 20
2225.2185241119
 30
0.0
 11
-905.3379573676
 21
2212.2185238437
 31
0.0
  0
LINE
  5
2C4
330
1F
100
AcDbEntity
  8
0
  6
Continuous
 62
     7
370
    15
100
AcDbLine
 10
-907.3379576955
 20
2212.2185238437
 30
0.0
 11
-907.3379576955
 21
2227.2185244397
 31
0.0
  0
LINE
  5
2C5
330
1F
100
AcDbEntity
  8
0
  6
Continuous
 62
     7
370
    15
100
AcDbLine
 10
-907.3379576955
 20
2197.2185232477
 30
0.0
 11
-907.3379576955
 21
2212.2185238437
 31
0.0
  0
LINE
  5
2C6
330
1F
100
AcDbEntity
  8
0
  6
Continuous
 62
     7
370
    15
100
AcDbLine
 10
-908.3379578594
 20
2227.2185244397
 30
0.0
 11
-908.3379578594
 21
2197.2185232477
 31
0.0
  0
LINE
  5
2C7
330
1F
100
AcDbEntity
  8
0
  6
Continuous
 62
     7
370
    15
100
AcDbLine
 10
-930.3379577402
 20
2215.9133449928
 30
0.0
 11
-930.3379577402
 21
2197.5185246007
 31
0.0
  0
LINE
  5
2C8
330
1F
100
AcDbEntity
  8
0
  6
Continuous
 62
     7
370
    15
100
AcDbLine
 10
-930.3379577402
 20
2226.9185230867
 30
0.0
 11
-930.3379577402
 21
2215.9133449928
 31
0.0
  0
LINE
  5
2C9
330
1F
100
AcDbEntity
  8
0
  6
Continuous
 62
     7
370
    15
100
AcDbLine
 10
-930.6379581619
 20
2215.9887485937
 30
0.0
 11
-930.6379581619
 21
2227.2185244397
 31
0.0
  0
LINE
  5
2CA
330
1F
100
AcDbEntity
  8
0
  6
Continuous
 62
     7
370
    15
100
AcDbLine
 10
-930.6379581619
 20
2197.2185232477
 30
0.0
 11
-930.6379581619
 21
2215.9887485937
 31
0.0
  0
LINE
  5
2CB
330
1F
100
AcDbEntity
  8
0
  6
Continuous
 62
     7
370
    15
100
AcDbLine
 10
-936.0379573706
 20
2215.9887485937
 30
0.0
 11
-936.0379573706
 21
2197.2185232477
 31
0.0
  0
LINE
  5
2CC
330
1F
100
AcDbEntity
  8
0
  6
Continuous
 62
     7
370
    15
100
AcDbLine
 10
-936.0379573706
 20
2227.2185244397
 30
0.0
 11
-936.0379573706
 21
2215.9887485937
 31
0.0
  0
LINE
  5
2CD
330
1F
100
AcDbEntity
  8
0
  6
Continuous
 62
     7
370
    15
100
AcDbLine
 10
-936.8379578743
 20
84.7185374038
 30
0.0
 11
-936.8379578743
 21
80.7185889022
 31
0.0
  0
LINE
  5
2CE
330
1F
100
AcDbEntity
  8
0
  6
Continuous
 62
     7
370
    15
100
AcDbLine
 10
-936.8379578743
 20
84.7185374038
 30
0.0
 11
-908.8379579413
 21
84.7185374038
 31
0.0
  0
LINE
  5
2CF
330
1F
100
AcDbEntity
  8
0
  6
Continuous
 62
     7
370
    15
100
AcDbLine
 10
-908.8379579413
 20
84.7185374038
 30
0.0
 11
-908.8379579413
 21
80.7185889022
 31
0.0
  0
LINE
  5
2D0
330
1F
100
AcDbEntity
  8
0
  6
Continuous
 62
     7
370
    15
100
AcDbLine
 10
-936.8379578743
 20
80.7185889022
 30
0.0
 11
-908.8379579413
 21
80.7185889022
 31
0.0
  0
LINE
  5
2D1
330
1F
100
AcDbEntity
  8
0
  6
Continuous
 62
     7
370
    15
100
AcDbLine
 10
-923.5374798815
 20
100.7185698287
 30
0.0
 11
-923.8085473705
 21
84.7185374038
 31
0.0
  0
LINE
  5
2D2
330
1F
100
AcDbEntity
  8
0
  6
Continuous
 62
     7
370
    15
100
AcDbLine
 10
-923.5374798815
 20
100.7185698287
 30
0.0
 11
-922.1384354684
 21
100.7185698287
 31
0.0
  0
LINE
  5
2D3
330
1F
100
AcDbEntity
  8
0
  6
Continuous
 62
     7
370
    15
100
AcDbLine
 10
-922.1384354684
 20
100.7185698287
 30
0.0
 11
-921.8673684451
 21
84.7185374038
 31
0.0
  0
LINE
  5
2D4
330
1F
100
AcDbEntity
  8
0
  6
Continuous
 62
     7
370
    15
100
AcDbLine
 10
-922.1384354684
 20
100.7185698287
 30
0.0
 11
-920.5290695469
 21
100.7185698287
 31
0.0
  0
LINE
  5
2D5
330
1F
100
AcDbEntity
  8
0
  6
Continuous
 62
     7
370
    15
100
AcDbLine
 10
-925.146845803
 20
100.7185698287
 30
0.0
 11
-923.5374798815
 21
100.7185698287
 31
0.0
  0
LINE
  5
2D6
330
1F
100
AcDbEntity
  8
0
  6
Continuous
 62
     7
370
    15
100
AcDbLine
 10
-888.837957457
 20
2173.7178601121
 30
0.0
 11
-888.837957457
 21
2188.718523717
 31
0.0
  0
LINE
  5
2D7
330
1F
100
AcDbEntity
  8
0
  6
Continuous
 62
     7
370
    15
100
AcDbLine
 10
-888.837957457
 20
2158.7185243876
 30
0.0
 11
-888.837957457
 21
2173.7178601121
 31
0.0
  0
LINE
  5
2D8
330
1F
100
AcDbEntity
  8
0
  6
Continuous
 62
     7
370
    15
100
AcDbLine
 10
-886.8379589919
 20
2173.7171961719
 30
0.0
 11
-886.8379589919
 21
2143.7185247229
 31
0.0
  0
LINE
  5
2D9
330
1F
100
AcDbEntity
  8
0
  6
Continuous
 62
     7
370
    15
100
AcDbLine
 10
-886.8379589919
 20
2203.7185233818
 30
0.0
 11
-886.8379589919
 21
2173.7171961719
 31
0.0
  0
LINE
  5
2DA
330
1F
100
AcDbEntity
  8
0
  6
Continuous
 62
     7
370
    15
100
AcDbLine
 10
-884.837958664
 20
2173.7171961719
 30
0.0
 11
-884.837958664
 21
2203.7185233818
 31
0.0
  0
LINE
  5
2DB
330
1F
100
AcDbEntity
  8
0
  6
Continuous
 62
     7
370
    15
100
AcDbLine
 10
-884.837958664
 20
2143.7185247229
 30
0.0
 11
-884.837958664
 21
2173.7171961719
 31
0.0
  0
LINE
  5
2DC
330
1F
100
AcDbEntity
  8
0
  6
Continuous
 62
     7
370
    15
100
AcDbLine
 10
-657.2717944605
 20
-118.9016093159
 30
0.0
 11
-658.271794508
 21
-119.9016094798
 31
0.0
  0
LINE
  5
2DD
330
1F
100
AcDbEntity
  8
0
  6
Continuous
 62
     7
370
    15
100
AcDbLine
 10
-658.271794508
 20
-142.9016095245
 30
0.0
 11
-657.2717944605
 21
-143.9016096884
 31
0.0
  0
LINE
  5
2DE
330
1F
100
AcDbEntity
  8
0
  6
Continuous
 62
     7
370
    15
100
AcDbLine
 10
1880.7282398243
 20
-143.9016096884
 30
0.0
 11
1881.728167345
 21
-142.9016095245
 31
0.0
  0
LINE
  5
2DF
330
1F
100
AcDbEntity
  8
0
  6
Continuous
 62
     7
370
    15
100
AcDbLine
 10
1881.728167345
 20
-119.9016094798
 30
0.0
 11
1880.7282398243
 21
-118.9016093159
 31
0.0
  0
LINE
  5
2E0
330
1F
100
AcDbEntity
  8
0
  6
Continuous
 62
     7
370
    15
100
AcDbLine
 10
1759.2782924671
 20
-143.9016096884
 30
0.0
 11
1817.2442863483
 21
-143.9016096884
 31
0.0
  0
LINE
  5
2E1
330
1F
100
AcDbEntity
  8
0
  6
Continuous
 62
     7
370
    15
100
AcDbLine
 10
1855.2970836658
 20
-143.9016096884
 30
0.0
 11
1880.7282398243
 21
-143.9016096884
 31
0.0
  0
LINE
  5
2E2
330
1F
100
AcDbEntity
  8
0
  6
Continuous
 62
     7
370
    15
100
AcDbLine
 10
999.2781827945
 20
-143.9016096884
 30
0.0
 11
1744.2102382679
 21
-143.9016096884
 31
0.0
  0
LINE
  5
2E3
330
1F
100
AcDbEntity
  8
0
  6
Continuous
 62
     7
370
    15
100
AcDbLine
 10
239.2781923313
 20
-143.9016096884
 30
0.0
 11
984.2101285953
 21
-143.9016096884
 31
0.0
  0
LINE
  5
2E4
330
1F
100
AcDbEntity
  8
0
  6
Continuous
 62
     7
370
    15
100
AcDbLine
 10
-520.721798132
 20
-143.9016096884
 30
0.0
 11
177.2282073993
 21
-143.9016096884
 31
0.0
  0
LINE
  5
2E5
330
1F
100
AcDbEntity
  8
0
  6
Continuous
 62
     7
370
    15
100
AcDbLine
 10
207.2281787891
 20
-143.9016096884
 30
0.0
 11
224.2101381321
 21
-143.9016096884
 31
0.0
  0
LINE
  5
2E6
330
1F
100
AcDbEntity
  8
0
  6
Continuous
 62
     7
370
    15
100
AcDbLine
 10
-657.2717944605
 20
-143.9016096884
 30
0.0
 11
-631.7556736272
 21
-143.9016096884
 31
0.0
  0
LINE
  5
2E7
330
1F
100
AcDbEntity
  8
0
  6
Continuous
 62
     7
370
    15
100
AcDbLine
 10
-593.7028949361
 20
-143.9016096884
 30
0.0
 11
-573.7717946272
 21
-143.9016096884
 31
0.0
  0
LINE
  5
2E8
330
1F
100
AcDbEntity
  8
0
  6
Continuous
 62
     7
370
    15
100
AcDbLine
 10
-543.7717934351
 20
-143.9016096884
 30
0.0
 11
-535.78983743
 21
-143.9016096884
 31
0.0
  0
LINE
  5
2E9
330
1F
100
AcDbEntity
  8
0
  6
Continuous
 62
     7
370
    15
100
AcDbLine
 10
-535.7717921238
 20
-118.9016093159
 30
0.0
 11
-544.2717944484
 21
-118.9016093159
 31
0.0
  0
LINE
  5
2EA
330
1F
100
AcDbEntity
  8
0
  6
Continuous
 62
     7
370
    15
100
AcDbLine
 10
-573.271793614
 20
-118.9016093159
 30
0.0
 11
-593.7731092077
 21
-118.9016093159
 31
0.0
  0
LINE
  5
2EB
330
1F
100
AcDbEntity
  8
0
  6
Continuous
 62
     7
370
    15
100
AcDbLine
 10
-631.76443551
 20
-118.9016093159
 30
0.0
 11
-657.2717944605
 21
-118.9016093159
 31
0.0
  0
LINE
  5
2EC
330
1F
100
AcDbEntity
  8
0
  6
Continuous
 62
     7
370
    15
100
AcDbLine
 10
224.2281983394
 20
-118.9016093159
 30
0.0
 11
206.7282150287
 21
-118.9016093159
 31
0.0
  0
LINE
  5
2ED
330
1F
100
AcDbEntity
  8
0
  6
Continuous
 62
     7
370
    15
100
AcDbLine
 10
177.7282307643
 20
-118.9016093159
 30
0.0
 11
-520.7896580201
 21
-118.9016093159
 31
0.0
  0
LINE
  5
2EE
330
1F
100
AcDbEntity
  8
0
  6
Continuous
 62
     7
370
    15
100
AcDbLine
 10
984.2282484073
 20
-118.9016093159
 30
0.0
 11
239.2103622455
 21
-118.9016093159
 31
0.0
  0
LINE
  5
2EF
330
1F
100
AcDbEntity
  8
0
  6
Continuous
 62
     7
370
    15
100
AcDbLine
 10
1744.2281196613
 20
-118.9016093159
 30
0.0
 11
999.2103527088
 21
-118.9016093159
 31
0.0
  0
LINE
  5
2F0
330
1F
100
AcDbEntity
  8
0
  6
Continuous
 62
     7
370
    15
100
AcDbLine
 10
1880.7282398243
 20
-118.9016093159
 30
0.0
 11
1855.2269886035
 21
-118.9016093159
 31
0.0
  0
LINE
  5
2F1
330
1F
100
AcDbEntity
  8
0
  6
Continuous
 62
     7
370
    15
100
AcDbLine
 10
1817.2354648609
 20
-118.9016093159
 30
0.0
 11
1759.210343172
 21
-118.9016093159
 31
0.0
  0
LINE
  5
2F2
330
1F
100
AcDbEntity
  8
0
  6
Continuous
 62
     7
370
    15
100
AcDbLine
 10
1816.0281131763
 20
-144.3016099402
 30
0.0
 11
1810.9281013507
 21
-144.3016099402
 31
0.0
  0
LINE
  5
2F3
330
1F
100
AcDbEntity
  8
0
  6
Continuous
 62
     7
370
    15
100
AcDbLine
 10
1810.9281013507
 20
-162.5016088256
 30
0.0
 11
1816.0281131763
 21
-162.5016088256
 31
0.0
  0
LINE
  5
2F4
330
1F
100
AcDbEntity
  8
0
  6
Continuous
 62
     7
370
    15
100
AcDbLine
 10
1816.0281131763
 20
-162.5016088256
 30
0.0
 11
1816.2281463642
 21
-162.3016091654
 31
0.0
  0
LINE
  5
2F5
330
1F
100
AcDbEntity
  8
0
  6
Continuous
 62
     7
370
    15
100
AcDbLine
 10
1816.2281463642
 20
-144.5016096005
 30
0.0
 11
1816.0281131763
 21
-144.3016099402
 31
0.0
  0
LINE
  5
2F6
330
1F
100
AcDbEntity
  8
0
  6
Continuous
 62
     7
370
    15
100
AcDbLine
 10
1810.9281013507
 20
-144.3016099402
 30
0.0
 11
1810.7283065815
 21
-144.5016096005
 31
0.0
  0
LINE
  5
2F7
330
1F
100
AcDbEntity
  8
0
  6
Continuous
 62
     7
370
    15
100
AcDbLine
 10
1810.7283065815
 20
-162.3016091654
 30
0.0
 11
1810.9281013507
 21
-162.5016088256
 31
0.0
  0
LINE
  5
2F8
330
1F
100
AcDbEntity
  8
0
  6
Continuous
 62
     7
370
    15
100
AcDbLine
 10
-587.471795569
 20
-162.5016088256
 30
0.0
 11
-587.2717921834
 21
-162.3016091654
 31
0.0
  0
LINE
  5
2F9
330
1F
100
AcDbEntity
  8
0
  6
Continuous
 62
     7
370
    15
100
AcDbLine
 10
-587.2717921834
 20
-144.5016096005
 30
0.0
 11
-587.471795569
 21
-144.3016099402
 31
0.0
  0
LINE
  5
2FA
330
1F
100
AcDbEntity
  8
0
  6
Continuous
 62
     7
370
    15
100
AcDbLine
 10
-592.5717924934
 20
-144.3016099402
 30
0.0
 11
-592.7717958789
 21
-144.5016096005
 31
0.0
  0
LINE
  5
2FB
330
1F
100
AcDbEntity
  8
0
  6
Continuous
 62
     7
370
    15
100
AcDbLine
 10
-592.7717958789
 20
-162.3016091654
 30
0.0
 11
-592.5717924934
 21
-162.5016088256
 31
0.0
  0
LINE
  5
2FC
330
1F
100
AcDbEntity
  8
0
  6
Continuous
 62
     7
370
    15
100
AcDbLine
 10
-592.5717924934
 20
-162.5016088256
 30
0.0
 11
-587.471795569
 21
-162.5016088256
 31
0.0
  0
LINE
  5
2FD
330
1F
100
AcDbEntity
  8
0
  6
Continuous
 62
     7
370
    15
100
AcDbLine
 10
-587.471795569
 20
-144.3016099402
 30
0.0
 11
-592.5717924934
 21
-144.3016099402
 31
0.0
  0
LINE
  5
2FE
330
1F
100
AcDbEntity
  8
0
  6
Continuous
 62
     7
370
    15
100
AcDbLine
 10
1810.7283065815
 20
-147.4516092458
 30
0.0
 11
1786.0281417865
 21
-147.4516092458
 31
0.0
  0
LINE
  5
2FF
330
1F
100
AcDbEntity
  8
0
  6
Continuous
 62
     7
370
    15
100
AcDbLine
 10
1786.0281417865
 20
-159.35160952
 30
0.0
 11
1810.7283065815
 21
-159.35160952
 31
0.0
  0
ARC
  5
300
330
1F
100
AcDbEntity
  8
0
  6
Continuous
 62
     7
370
    15
100
AcDbCircle
 10
1786.028205492
 20
-159.0516095021
 30
0.0
 40
0.3000000000000114
100
AcDbArc
 50
180.0
 51
270.0
  0
ARC
  5
301
330
1F
100
AcDbEntity
  8
0
  6
Continuous
 62
     7
370
    15
100
AcDbCircle
 10
1786.028205492
 20
-147.7516095021
 30
0.0
 40
0.3000000000000114
100
AcDbArc
 50
90.0
 51
180.0
  0
LINE
  5
302
330
1F
100
AcDbEntity
  8
0
  6
Continuous
 62
     7
370
    15
100
AcDbLine
 10
-587.2717921834
 20
-159.35160952
 30
0.0
 11
-578.5717939239
 21
-159.35160952
 31
0.0
  0
LINE
  5
303
330
1F
100
AcDbEntity
  8
0
  6
Continuous
 62
     7
370
    15
100
AcDbLine
 10
-578.5717939239
 20
-147.4516092458
 30
0.0
 11
-587.2717921834
 21
-147.4516092458
 31
0.0
  0
ARC
  5
304
330
1F
100
AcDbEntity
  8
0
  6
Continuous
 62
     7
370
    15
100
AcDbCircle
 10
-578.571794508
 20
-147.7516095021
 30
0.0
 40
0.3000000000000682
100
AcDbArc
 50
0.0
 51
90.0
  0
ARC
  5
305
330
1F
100
AcDbEntity
  8
0
  6
Continuous
 62
     7
370
    15
100
AcDbCircle
 10
-578.571794508
 20
-159.0516095021
 30
0.0
 40
0.3000000000000682
100
AcDbArc
 50
270.0
 51
0.0
  0
LINE
  5
306
330
1F
100
AcDbEntity
  8
0
  6
Continuous
 62
     7
370
    15
100
AcDbLine
 10
-576.271792243
 20
-148.401610426
 30
0.0
 11
-578.2717962962
 21
-148.401610426
 31
0.0
  0
LINE
  5
307
330
1F
100
AcDbEntity
  8
0
  6
Continuous
 62
     7
370
    15
100
AcDbLine
 10
-578.2717962962
 20
-158.4016102025
 30
0.0
 11
-576.271792243
 21
-158.4016102025
 31
0.0
  0
LINE
  5
308
330
1F
100
AcDbEntity
  8
0
  6
Continuous
 62
     7
370
    15
100
AcDbLine
 10
1783.7281177539
 20
-158.4016102025
 30
0.0
 11
1785.728211214
 21
-158.4016102025
 31
0.0
  0
LINE
  5
309
330
1F
100
AcDbEntity
  8
0
  6
Continuous
 62
     7
370
    15
100
AcDbLine
 10
1785.728211214
 20
-148.401610426
 30
0.0
 11
1783.7281177539
 21
-148.401610426
 31
0.0
  0
LINE
  5
30A
330
1F
100
AcDbEntity
  8
0
  6
Continuous
 62
     7
370
    15
100
AcDbLine
 10
-632.7717949849
 20
-144.9266093442
 30
0.0
 11
-632.9717946451
 21
-144.9266093442
 31
0.0
  0
LINE
  5
30B
330
1F
100
AcDbEntity
  8
0
  6
Continuous
 62
     7
370
    15
100
AcDbLine
 10
-632.9717946451
 20
-161.8766094217
 30
0.0
 11
-632.7717949849
 21
-161.8766094217
 31
0.0
  0
LINE
  5
30C
330
1F
100
AcDbEntity
  8
0
  6
Continuous
 62
     7
370
    15
100
AcDbLine
 10
-632.9717946451
 20
-144.9266093442
 30
0.0
 11
-633.2717941355
 21
-145.2266097659
 31
0.0
  0
LINE
  5
30D
330
1F
100
AcDbEntity
  8
0
  6
Continuous
 62
     7
370
    15
100
AcDbLine
 10
-633.2717941355
 20
-161.5766099313
 30
0.0
 11
-632.9717946451
 21
-161.8766094217
 31
0.0
  0
LINE
  5
30E
330
1F
100
AcDbEntity
  8
0
  6
Continuous
 62
     7
370
    15
100
AcDbLine
 10
1856.4281414051
 20
-161.8766094217
 30
0.0
 11
1856.7283103962
 21
-161.5766099313
 31
0.0
  0
LINE
  5
30F
330
1F
100
AcDbEntity
  8
0
  6
Continuous
 62
     7
370
    15
100
AcDbLine
 10
1856.7283103962
 20
-145.2266097659
 30
0.0
 11
1856.4281414051
 21
-144.9266093442
 31
0.0
  0
LINE
  5
310
330
1F
100
AcDbEntity
  8
0
  6
Continuous
 62
     7
370
    15
100
AcDbLine
 10
1856.2281082172
 20
-161.8766094217
 30
0.0
 11
1856.4281414051
 21
-161.8766094217
 31
0.0
  0
LINE
  5
311
330
1F
100
AcDbEntity
  8
0
  6
Continuous
 62
     7
370
    15
100
AcDbLine
 10
1856.4281414051
 20
-144.9266093442
 30
0.0
 11
1856.2281082172
 21
-144.9266093442
 31
0.0
  0
LINE
  5
312
330
1F
100
AcDbEntity
  8
0
  6
Continuous
 62
     7
370
    15
100
AcDbLine
 10
-592.7717958789
 20
-164.1016079703
 30
0.0
 11
-592.9717918139
 21
-163.90160831
 31
0.0
  0
LINE
  5
313
330
1F
100
AcDbEntity
  8
0
  6
Continuous
 62
     7
370
    15
100
AcDbLine
 10
-632.5717953246
 20
-163.90160831
 30
0.0
 11
-632.7717949849
 21
-164.1016079703
 31
0.0
  0
LINE
  5
314
330
1F
100
AcDbEntity
  8
0
  6
Continuous
 62
     7
370
    15
100
AcDbLine
 10
-632.7717949849
 20
-164.1016079703
 30
0.0
 11
-632.7717949849
 21
-166.9016106644
 31
0.0
  0
LINE
  5
315
330
1F
100
AcDbEntity
  8
0
  6
Continuous
 62
     7
370
    15
100
AcDbLine
 10
-592.7717958789
 20
-166.9016106644
 30
0.0
 11
-592.7717958789
 21
-164.1016079703
 31
0.0
  0
LINE
  5
316
330
1F
100
AcDbEntity
  8
0
  6
Continuous
 62
     7
370
    15
100
AcDbLine
 10
-632.7717949849
 20
-166.9016106644
 30
0.0
 11
-630.771794657
 21
-168.9016109922
 31
0.0
  0
LINE
  5
317
330
1F
100
AcDbEntity
  8
0
  6
Continuous
 62
     7
370
    15
100
AcDbLine
 10
-594.7717924815
 20
-168.9016109922
 30
0.0
 11
-592.7717958789
 21
-166.9016106644
 31
0.0
  0
LINE
  5
318
330
1F
100
AcDbEntity
  8
0
  6
Continuous
 62
     7
370
    15
100
AcDbLine
 10
1856.2281082172
 20
-164.1016079703
 30
0.0
 11
1856.0283134479
 21
-163.90160831
 31
0.0
  0
LINE
  5
319
330
1F
100
AcDbEntity
  8
0
  6
Continuous
 62
     7
370
    15
100
AcDbLine
 10
1816.428179552
 20
-163.90160831
 30
0.0
 11
1816.2281463642
 21
-164.1016079703
 31
0.0
  0
LINE
  5
31A
330
1F
100
AcDbEntity
  8
0
  6
Continuous
 62
     7
370
    15
100
AcDbLine
 10
1816.2281463642
 20
-164.1016079703
 30
0.0
 11
1816.2281463642
 21
-166.9016106644
 31
0.0
  0
LINE
  5
31B
330
1F
100
AcDbEntity
  8
0
  6
Continuous
 62
     7
370
    15
100
AcDbLine
 10
1856.2281082172
 20
-166.9016106644
 30
0.0
 11
1856.2281082172
 21
-164.1016079703
 31
0.0
  0
LINE
  5
31C
330
1F
100
AcDbEntity
  8
0
  6
Continuous
 62
     7
370
    15
100
AcDbLine
 10
1816.2281463642
 20
-166.9016106644
 30
0.0
 11
1818.2282398243
 21
-168.9016109922
 31
0.0
  0
LINE
  5
31D
330
1F
100
AcDbEntity
  8
0
  6
Continuous
 62
     7
370
    15
100
AcDbLine
 10
1854.2282531757
 20
-168.9016109922
 30
0.0
 11
1856.2281082172
 21
-166.9016106644
 31
0.0
  0
LINE
  5
31E
330
1F
100
AcDbEntity
  8
0
  6
Continuous
 62
     7
370
    15
100
AcDbLine
 10
-632.7717949849
 20
-143.9016096884
 30
0.0
 11
-632.7717949849
 21
-163.6016106823
 31
0.0
  0
LINE
  5
31F
330
1F
100
AcDbEntity
  8
0
  6
Continuous
 62
     7
370
    15
100
AcDbLine
 10
-632.7717949849
 20
-116.7016093278
 30
0.0
 11
-632.7717949849
 21
-118.9016093159
 31
0.0
  0
LINE
  5
320
330
1F
100
AcDbEntity
  8
0
  6
Continuous
 62
     7
370
    15
100
AcDbLine
 10
-592.7717958789
 20
-118.9016093159
 30
0.0
 11
-592.7717958789
 21
-116.7016093278
 31
0.0
  0
LINE
  5
321
330
1F
100
AcDbEntity
  8
0
  6
Continuous
 62
     7
370
    15
100
AcDbLine
 10
-592.7717958789
 20
-163.6016106823
 30
0.0
 11
-592.7717958789
 21
-143.9016096884
 31
0.0
  0
LINE
  5
322
330
1F
100
AcDbEntity
  8
0
  6
Continuous
 62
     7
370
    15
100
AcDbLine
 10
-592.7717958789
 20
-116.7016093278
 30
0.0
 11
-593.0717935067
 21
-116.4016098374
 31
0.0
  0
LINE
  5
323
330
1F
100
AcDbEntity
  8
0
  6
Continuous
 62
     7
370
    15
100
AcDbLine
 10
-632.4717936318
 20
-116.4016098374
 30
0.0
 11
-632.7717949849
 21
-116.7016093278
 31
0.0
  0
LINE
  5
324
330
1F
100
AcDbEntity
  8
0
  6
Continuous
 62
     7
370
    15
100
AcDbLine
 10
-632.7717949849
 20
-163.6016106823
 30
0.0
 11
-632.4717936318
 21
-163.90160831
 31
0.0
  0
LINE
  5
325
330
1F
100
AcDbEntity
  8
0
  6
Continuous
 62
     7
370
    15
100
AcDbLine
 10
-593.0717935067
 20
-163.90160831
 30
0.0
 11
-592.7717958789
 21
-163.6016106823
 31
0.0
  0
LINE
  5
326
330
1F
100
AcDbEntity
  8
0
  6
Continuous
 62
     7
370
    15
100
AcDbLine
 10
1816.2281463642
 20
-143.9016096884
 30
0.0
 11
1816.2281463642
 21
-163.6016106823
 31
0.0
  0
LINE
  5
327
330
1F
100
AcDbEntity
  8
0
  6
Continuous
 62
     7
370
    15
100
AcDbLine
 10
1816.2281463642
 20
-116.7016093278
 30
0.0
 11
1816.2281463642
 21
-118.9016093159
 31
0.0
  0
LINE
  5
328
330
1F
100
AcDbEntity
  8
0
  6
Continuous
 62
     7
370
    15
100
AcDbLine
 10
1856.2281082172
 20
-118.9016093159
 30
0.0
 11
1856.2281082172
 21
-116.7016093278
 31
0.0
  0
LINE
  5
329
330
1F
100
AcDbEntity
  8
0
  6
Continuous
 62
     7
370
    15
100
AcDbLine
 10
1856.2281082172
 20
-163.6016106823
 30
0.0
 11
1856.2281082172
 21
-143.9016096884
 31
0.0
  0
LINE
  5
32A
330
1F
100
AcDbEntity
  8
0
  6
Continuous
 62
     7
370
    15
100
AcDbLine
 10
1856.2281082172
 20
-116.7016093278
 30
0.0
 11
1855.9281776447
 21
-116.4016098374
 31
0.0
  0
LINE
  5
32B
330
1F
100
AcDbEntity
  8
0
  6
Continuous
 62
     7
370
    15
100
AcDbLine
 10
1816.5283153553
 20
-116.4016098374
 30
0.0
 11
1816.2281463642
 21
-116.7016093278
 31
0.0
  0
LINE
  5
32C
330
1F
100
AcDbEntity
  8
0
  6
Continuous
 62
     7
370
    15
100
AcDbLine
 10
1816.2281463642
 20
-163.6016106823
 30
0.0
 11
1816.5283153553
 21
-163.90160831
 31
0.0
  0
LINE
  5
32D
330
1F
100
AcDbEntity
  8
0
  6
Continuous
 62
     7
370
    15
100
AcDbLine
 10
1855.9281776447
 20
-163.90160831
 30
0.0
 11
1856.2281082172
 21
-163.6016106823
 31
0.0
  0
LINE
  5
32E
330
1F
100
AcDbEntity
  8
0
  6
Continuous
 62
     7
370
    15
100
AcDbLine
 10
-587.7717931967
 20
-120.9016096437
 30
0.0
 11
-587.7717931967
 21
-122.4016098896
 31
0.0
  0
LINE
  5
32F
330
1F
100
AcDbEntity
  8
0
  6
Continuous
 62
     7
370
    15
100
AcDbLine
 10
-529.7717948657
 20
-122.4016098896
 30
0.0
 11
-529.7717948657
 21
-120.9016096437
 31
0.0
  0
LINE
  5
330
330
1F
100
AcDbEntity
  8
0
  6
Continuous
 62
     7
370
    15
100
AcDbLine
 10
221.2281773586
 20
-141.9016093606
 30
0.0
 11
221.2281773586
 21
-140.4016091147
 31
0.0
  0
LINE
  5
331
330
1F
100
AcDbEntity
  8
0
  6
Continuous
 62
     7
370
    15
100
AcDbLine
 10
163.2282088298
 20
-140.4016091147
 30
0.0
 11
163.2282088298
 21
-141.9016093606
 31
0.0
  0
LINE
  5
332
330
1F
100
AcDbEntity
  8
0
  6
Continuous
 62
     7
370
    15
100
AcDbLine
 10
-529.7717948657
 20
-141.9016093606
 30
0.0
 11
-529.7717948657
 21
-140.4016091147
 31
0.0
  0
LINE
  5
333
330
1F
100
AcDbEntity
  8
0
  6
Continuous
 62
     7
370
    15
100
AcDbLine
 10
-587.7717931967
 20
-140.4016091147
 30
0.0
 11
-587.7717931967
 21
-141.9016093606
 31
0.0
  0
LINE
  5
334
330
1F
100
AcDbEntity
  8
0
  6
Continuous
 62
     7
370
    15
100
AcDbLine
 10
163.2282088298
 20
-120.9016096437
 30
0.0
 11
163.2282088298
 21
-122.4016098896
 31
0.0
  0
LINE
  5
335
330
1F
100
AcDbEntity
  8
0
  6
Continuous
 62
     7
370
    15
100
AcDbLine
 10
221.2281773586
 20
-122.4016098896
 30
0.0
 11
221.2281773586
 21
-120.9016096437
 31
0.0
  0
ARC
  5
336
330
1F
100
AcDbEntity
  8
0
  6
Continuous
 62
     7
370
    15
100
AcDbCircle
 10
-520.171794508
 20
-131.4276609254
 30
0.0
 40
12.50000000000011
100
AcDbArc
 50
140.1746287392
 51
219.8253712608
  0
ARC
  5
337
330
1F
100
AcDbEntity
  8
0
  6
Continuous
 62
     7
370
    15
100
AcDbCircle
 10
-597.371794508
 20
-131.4276609254
 30
0.0
 40
12.49999999999994
100
AcDbArc
 50
320.1746287392
 51
39.8253712608
  0
LINE
  5
338
330
1F
100
AcDbEntity
  8
0
  6
Continuous
 62
     7
370
    15
100
AcDbLine
 10
-529.7717948657
 20
-123.4220376828
 30
0.0
 11
-529.7717948657
 21
-122.4016098896
 31
0.0
  0
LINE
  5
339
330
1F
100
AcDbEntity
  8
0
  6
Continuous
 62
     7
370
    15
100
AcDbLine
 10
-587.7717931967
 20
-122.4016098896
 30
0.0
 11
-587.7717931967
 21
-123.4220376828
 31
0.0
  0
LINE
  5
33A
330
1F
100
AcDbEntity
  8
0
  6
Continuous
 62
     7
370
    15
100
AcDbLine
 10
-529.7717948657
 20
-140.4016091147
 30
0.0
 11
-529.7717948657
 21
-139.4332841629
 31
0.0
  0
LINE
  5
33B
330
1F
100
AcDbEntity
  8
0
  6
Continuous
 62
     7
370
    15
100
AcDbLine
 10
-587.7717931967
 20
-139.4332841629
 30
0.0
 11
-587.7717931967
 21
-140.4016091147
 31
0.0
  0
ARC
  5
33C
330
1F
100
AcDbEntity
  8
0
  6
Continuous
 62
     7
370
    15
100
AcDbCircle
 10
230.828205492
 20
-131.4276609254
 30
0.0
 40
12.49999999999995
100
AcDbArc
 50
140.1746287392
 51
219.8253712608
  0
ARC
  5
33D
330
1F
100
AcDbEntity
  8
0
  6
Continuous
 62
     7
370
    15
100
AcDbCircle
 10
153.628205492
 20
-131.4276609254
 30
0.0
 40
12.49999999999995
100
AcDbArc
 50
320.1746287392
 51
39.8253712608
  0
LINE
  5
33E
330
1F
100
AcDbEntity
  8
0
  6
Continuous
 62
     7
370
    15
100
AcDbLine
 10
221.2281773586
 20
-123.4220376828
 30
0.0
 11
221.2281773586
 21
-122.4016098896
 31
0.0
  0
LINE
  5
33F
330
1F
100
AcDbEntity
  8
0
  6
Continuous
 62
     7
370
    15
100
AcDbLine
 10
163.2282088298
 20
-122.4016098896
 30
0.0
 11
163.2282088298
 21
-123.4220376828
 31
0.0
  0
LINE
  5
340
330
1F
100
AcDbEntity
  8
0
  6
Continuous
 62
     7
370
    15
100
AcDbLine
 10
221.2281773586
 20
-140.4016091147
 30
0.0
 11
221.2281773586
 21
-139.4332841629
 31
0.0
  0
LINE
  5
341
330
1F
100
AcDbEntity
  8
0
  6
Continuous
 62
     7
370
    15
100
AcDbLine
 10
163.2282088298
 20
-139.4332841629
 30
0.0
 11
163.2282088298
 21
-140.4016091147
 31
0.0
  0
LINE
  5
342
330
1F
100
AcDbEntity
  8
0
  6
Continuous
 62
     7
370
    15
100
AcDbLine
 10
-543.7717934351
 20
-156.4016098747
 30
0.0
 11
-543.7717934351
 21
-154.4016095468
 31
0.0
  0
LINE
  5
343
330
1F
100
AcDbEntity
  8
0
  6
Continuous
 62
     7
370
    15
100
AcDbLine
 10
-573.7717946272
 20
-154.4016095468
 30
0.0
 11
-573.7717946272
 21
-156.4016098747
 31
0.0
  0
LINE
  5
344
330
1F
100
AcDbEntity
  8
0
  6
Continuous
 62
     7
370
    15
100
AcDbLine
 10
-573.7717946272
 20
-156.4016098747
 30
0.0
 11
-571.7717980247
 21
-158.4016102025
 31
0.0
  0
LINE
  5
345
330
1F
100
AcDbEntity
  8
0
  6
Continuous
 62
     7
370
    15
100
AcDbLine
 10
-545.7717974883
 20
-158.4016102025
 30
0.0
 11
-543.7717934351
 21
-156.4016098747
 31
0.0
  0
LINE
  5
346
330
1F
100
AcDbEntity
  8
0
  6
Continuous
 62
     7
370
    15
100
AcDbLine
 10
207.2281787891
 20
-156.4016098747
 30
0.0
 11
207.2281787891
 21
-154.4016095468
 31
0.0
  0
LINE
  5
347
330
1F
100
AcDbEntity
  8
0
  6
Continuous
 62
     7
370
    15
100
AcDbLine
 10
177.2282073993
 20
-154.4016095468
 30
0.0
 11
177.2282073993
 21
-156.4016098747
 31
0.0
  0
LINE
  5
348
330
1F
100
AcDbEntity
  8
0
  6
Continuous
 62
     7
370
    15
100
AcDbLine
 10
177.2282073993
 20
-156.4016098747
 30
0.0
 11
179.2281816501
 21
-158.4016102025
 31
0.0
  0
LINE
  5
349
330
1F
100
AcDbEntity
  8
0
  6
Continuous
 62
     7
370
    15
100
AcDbLine
 10
205.2282045383
 20
-158.4016102025
 30
0.0
 11
207.2281787891
 21
-156.4016098747
 31
0.0
  0
LINE
  5
34A
330
1F
100
AcDbEntity
  8
0
  6
Continuous
 62
     7
370
    15
100
AcDbLine
 10
-543.7717934351
 20
-119.4016093978
 30
0.0
 11
-545.7717974883
 21
-117.40160907
 31
0.0
  0
LINE
  5
34B
330
1F
100
AcDbEntity
  8
0
  6
Continuous
 62
     7
370
    15
100
AcDbLine
 10
-571.7717980247
 20
-117.40160907
 30
0.0
 11
-573.7717946272
 21
-119.4016093978
 31
0.0
  0
LINE
  5
34C
330
1F
100
AcDbEntity
  8
0
  6
Continuous
 62
     7
370
    15
100
AcDbLine
 10
-573.7717946272
 20
-119.4016093978
 30
0.0
 11
-573.7717946272
 21
-120.4016095617
 31
0.0
  0
LINE
  5
34D
330
1F
100
AcDbEntity
  8
0
  6
Continuous
 62
     7
370
    15
100
AcDbLine
 10
-543.7717934351
 20
-120.4016095617
 30
0.0
 11
-543.7717934351
 21
-119.4016093978
 31
0.0
  0
LINE
  5
34E
330
1F
100
AcDbEntity
  8
0
  6
Continuous
 62
     7
370
    15
100
AcDbLine
 10
-568.5217951637
 20
-120.4016095617
 30
0.0
 11
-568.5217951637
 21
-120.9016096437
 31
0.0
  0
LINE
  5
34F
330
1F
100
AcDbEntity
  8
0
  6
Continuous
 62
     7
370
    15
100
AcDbLine
 10
-549.0217928987
 20
-120.9016096437
 30
0.0
 11
-549.0217928987
 21
-120.4016095617
 31
0.0
  0
LINE
  5
350
330
1F
100
AcDbEntity
  8
0
  6
Continuous
 62
     7
370
    15
100
AcDbLine
 10
177.2282073993
 20
-119.4016093978
 30
0.0
 11
177.2282073993
 21
-120.4016095617
 31
0.0
  0
LINE
  5
351
330
1F
100
AcDbEntity
  8
0
  6
Continuous
 62
     7
370
    15
100
AcDbLine
 10
207.2281787891
 20
-120.4016095617
 30
0.0
 11
207.2281787891
 21
-119.4016093978
 31
0.0
  0
LINE
  5
352
330
1F
100
AcDbEntity
  8
0
  6
Continuous
 62
     7
370
    15
100
AcDbLine
 10
207.2281787891
 20
-119.4016093978
 30
0.0
 11
205.2282045383
 21
-117.40160907
 31
0.0
  0
LINE
  5
353
330
1F
100
AcDbEntity
  8
0
  6
Continuous
 62
     7
370
    15
100
AcDbLine
 10
179.2281816501
 20
-117.40160907
 30
0.0
 11
177.2282073993
 21
-119.4016093978
 31
0.0
  0
LINE
  5
354
330
1F
100
AcDbEntity
  8
0
  6
Continuous
 62
     7
370
    15
100
AcDbLine
 10
182.4781845111
 20
-120.4016095617
 30
0.0
 11
182.4781845111
 21
-120.9016096437
 31
0.0
  0
LINE
  5
355
330
1F
100
AcDbEntity
  8
0
  6
Continuous
 62
     7
370
    15
100
AcDbLine
 10
201.9782016773
 20
-120.9016096437
 30
0.0
 11
201.9782016773
 21
-120.4016095617
 31
0.0
  0
LINE
  5
356
330
1F
100
AcDbEntity
  8
0
  6
Continuous
 62
     7
370
    15
100
AcDbLine
 10
207.2281787891
 20
-142.7016098642
 30
0.0
 11
206.9281886119
 21
-142.4016094425
 31
0.0
  0
LINE
  5
357
330
1F
100
AcDbEntity
  8
0
  6
Continuous
 62
     7
370
    15
100
AcDbLine
 10
177.5281975765
 20
-142.4016094425
 30
0.0
 11
177.2282073993
 21
-142.7016098642
 31
0.0
  0
LINE
  5
358
330
1F
100
AcDbEntity
  8
0
  6
Continuous
 62
     7
370
    15
100
AcDbLine
 10
207.2281787891
 20
-148.101609073
 30
0.0
 11
207.2281787891
 21
-142.7016098642
 31
0.0
  0
LINE
  5
359
330
1F
100
AcDbEntity
  8
0
  6
Continuous
 62
     7
370
    15
100
AcDbLine
 10
177.2282073993
 20
-142.7016098642
 30
0.0
 11
177.2282073993
 21
-148.101609073
 31
0.0
  0
LINE
  5
35A
330
1F
100
AcDbEntity
  8
0
  6
Continuous
 62
     7
370
    15
100
AcDbLine
 10
177.2282073993
 20
-148.101609073
 30
0.0
 11
177.5281975765
 21
-148.401610426
 31
0.0
  0
LINE
  5
35B
330
1F
100
AcDbEntity
  8
0
  6
Continuous
 62
     7
370
    15
100
AcDbLine
 10
206.9281886119
 20
-148.401610426
 30
0.0
 11
207.2281787891
 21
-148.101609073
 31
0.0
  0
LINE
  5
35C
330
1F
100
AcDbEntity
  8
0
  6
Continuous
 62
     7
370
    15
100
AcDbLine
 10
201.9782016773
 20
-142.4016094425
 30
0.0
 11
201.9782016773
 21
-141.9016093606
 31
0.0
  0
LINE
  5
35D
330
1F
100
AcDbEntity
  8
0
  6
Continuous
 62
     7
370
    15
100
AcDbLine
 10
182.4781845111
 20
-141.9016093606
 30
0.0
 11
182.4781845111
 21
-142.4016094425
 31
0.0
  0
LINE
  5
35E
330
1F
100
AcDbEntity
  8
0
  6
Continuous
 62
     7
370
    15
100
AcDbLine
 10
-543.7717934351
 20
-148.101609073
 30
0.0
 11
-543.7717934351
 21
-142.7016098642
 31
0.0
  0
LINE
  5
35F
330
1F
100
AcDbEntity
  8
0
  6
Continuous
 62
     7
370
    15
100
AcDbLine
 10
-573.7717946272
 20
-142.7016098642
 30
0.0
 11
-573.7717946272
 21
-148.101609073
 31
0.0
  0
LINE
  5
360
330
1F
100
AcDbEntity
  8
0
  6
Continuous
 62
     7
370
    15
100
AcDbLine
 10
-543.7717934351
 20
-142.7016098642
 30
0.0
 11
-544.0717910629
 21
-142.4016094425
 31
0.0
  0
LINE
  5
361
330
1F
100
AcDbEntity
  8
0
  6
Continuous
 62
     7
370
    15
100
AcDbLine
 10
-573.4717969995
 20
-142.4016094425
 30
0.0
 11
-573.7717946272
 21
-142.7016098642
 31
0.0
  0
LINE
  5
362
330
1F
100
AcDbEntity
  8
0
  6
Continuous
 62
     7
370
    15
100
AcDbLine
 10
-573.7717946272
 20
-148.101609073
 30
0.0
 11
-573.4717969995
 21
-148.401610426
 31
0.0
  0
LINE
  5
363
330
1F
100
AcDbEntity
  8
0
  6
Continuous
 62
     7
370
    15
100
AcDbLine
 10
-544.0717910629
 20
-148.401610426
 30
0.0
 11
-543.7717934351
 21
-148.101609073
 31
0.0
  0
LINE
  5
364
330
1F
100
AcDbEntity
  8
0
  6
Continuous
 62
     7
370
    15
100
AcDbLine
 10
-549.0217928987
 20
-142.4016094425
 30
0.0
 11
-549.0217928987
 21
-141.9016093606
 31
0.0
  0
LINE
  5
365
330
1F
100
AcDbEntity
  8
0
  6
Continuous
 62
     7
370
    15
100
AcDbLine
 10
-568.5217951637
 20
-141.9016093606
 30
0.0
 11
-568.5217951637
 21
-142.4016094425
 31
0.0
  0
LINE
  5
366
330
1F
100
AcDbEntity
  8
0
  6
Continuous
 62
     7
370
    15
100
AcDbLine
 10
984.2781970996
 20
-143.9016096884
 30
0.0
 11
985.2782438297
 21
-144.9016098523
 31
0.0
  0
LINE
  5
367
330
1F
100
AcDbEntity
  8
0
  6
Continuous
 62
     7
370
    15
100
AcDbLine
 10
998.1782386798
 20
-144.9016098523
 30
0.0
 11
999.1781662006
 21
-143.9016096884
 31
0.0
  0
LINE
  5
368
330
1F
100
AcDbEntity
  8
0
  6
Continuous
 62
     7
370
    15
100
AcDbLine
 10
1744.2781875629
 20
-143.9016096884
 30
0.0
 11
1745.2781150837
 21
-144.9016098523
 31
0.0
  0
LINE
  5
369
330
1F
100
AcDbEntity
  8
0
  6
Continuous
 62
     7
370
    15
100
AcDbLine
 10
1758.1782291431
 20
-144.9016098523
 30
0.0
 11
1759.1781566639
 21
-143.9016096884
 31
0.0
  0
LINE
  5
36A
330
1F
100
AcDbEntity
  8
0
  6
Continuous
 62
     7
370
    15
100
AcDbLine
 10
-535.7217912775
 20
-143.9016096884
 30
0.0
 11
-534.7217967015
 21
-144.9016098523
 31
0.0
  0
LINE
  5
36B
330
1F
100
AcDbEntity
  8
0
  6
Continuous
 62
     7
370
    15
100
AcDbLine
 10
-521.8218018513
 20
-144.9016098523
 30
0.0
 11
-520.8217998248
 21
-143.9016096884
 31
0.0
  0
LINE
  5
36C
330
1F
100
AcDbEntity
  8
0
  6
Continuous
 62
     7
370
    15
100
AcDbLine
 10
224.2782066364
 20
-143.9016096884
 30
0.0
 11
225.2781937618
 21
-144.9016098523
 31
0.0
  0
LINE
  5
36D
330
1F
100
AcDbEntity
  8
0
  6
Continuous
 62
     7
370
    15
100
AcDbLine
 10
238.1781886119
 20
-144.9016098523
 30
0.0
 11
239.1781757373
 21
-143.9016096884
 31
0.0
  0
LINE
  5
36E
330
1F
100
AcDbEntity
  8
0
  6
Continuous
 62
     7
370
    15
100
AcDbLine
 10
224.2281983394
 20
-100.9016091594
 30
0.0
 11
224.2281983394
 21
-118.9016093159
 31
0.0
  0
LINE
  5
36F
330
1F
100
AcDbEntity
  8
0
  6
Continuous
 62
     7
370
    15
100
AcDbLine
 10
239.2281840343
 20
-118.9016093159
 30
0.0
 11
239.2281840343
 21
-100.9016091594
 31
0.0
  0
LINE
  5
370
330
1F
100
AcDbEntity
  8
0
  6
Continuous
 62
     7
370
    15
100
AcDbLine
 10
1744.2281196613
 20
-100.9016091594
 30
0.0
 11
1744.2281196613
 21
-118.9016093159
 31
0.0
  0
LINE
  5
371
330
1F
100
AcDbEntity
  8
0
  6
Continuous
 62
     7
370
    15
100
AcDbLine
 10
1759.2282245655
 20
-118.9016093159
 30
0.0
 11
1759.2282245655
 21
-100.9016091594
 31
0.0
  0
LINE
  5
372
330
1F
100
AcDbEntity
  8
0
  6
Continuous
 62
     7
370
    15
100
AcDbLine
 10
-535.7717921238
 20
-100.9016091594
 30
0.0
 11
-535.7717921238
 21
-118.9016093159
 31
0.0
  0
LINE
  5
373
330
1F
100
AcDbEntity
  8
0
  6
Continuous
 62
     7
370
    15
100
AcDbLine
 10
-520.7717915278
 20
-118.9016093159
 30
0.0
 11
-520.7717915278
 21
-100.9016091594
 31
0.0
  0
LINE
  5
374
330
1F
100
AcDbEntity
  8
0
  6
Continuous
 62
     7
370
    15
100
AcDbLine
 10
984.2282484073
 20
-100.9016091594
 30
0.0
 11
984.2282484073
 21
-118.9016093159
 31
0.0
  0
LINE
  5
375
330
1F
100
AcDbEntity
  8
0
  6
Continuous
 62
     7
370
    15
100
AcDbLine
 10
999.2282341022
 20
-118.9016093159
 30
0.0
 11
999.2282341022
 21
-100.9016091594
 31
0.0
  0
LINE
  5
376
330
1F
100
AcDbEntity
  8
0
  6
Continuous
 62
     7
370
    15
100
AcDbLine
 10
201.7282197971
 20
-96.9016103664
 30
0.0
 11
201.7282197971
 21
-98.9016106942
 31
0.0
  0
LINE
  5
377
330
1F
100
AcDbEntity
  8
0
  6
Continuous
 62
     7
370
    15
100
AcDbLine
 10
261.7282221813
 20
-98.9016106942
 30
0.0
 11
261.7282221813
 21
-96.9016103664
 31
0.0
  0
LINE
  5
378
330
1F
100
AcDbEntity
  8
0
  6
Continuous
 62
     7
370
    15
100
AcDbLine
 10
201.7282197971
 20
-98.9016106942
 30
0.0
 11
216.728205492
 21
-100.9016091594
 31
0.0
  0
LINE
  5
379
330
1F
100
AcDbEntity
  8
0
  6
Continuous
 62
     7
370
    15
100
AcDbLine
 10
246.7281768817
 20
-100.9016091594
 30
0.0
 11
261.7282221813
 21
-98.9016106942
 31
0.0
  0
LINE
  5
37A
330
1F
100
AcDbEntity
  8
0
  6
Continuous
 62
     7
370
    15
100
AcDbLine
 10
961.7282102603
 20
-96.9016103664
 30
0.0
 11
961.7282102603
 21
-98.9016106942
 31
0.0
  0
LINE
  5
37B
330
1F
100
AcDbEntity
  8
0
  6
Continuous
 62
     7
370
    15
100
AcDbLine
 10
1021.7281530399
 20
-98.9016106942
 30
0.0
 11
1021.7281530399
 21
-96.9016103664
 31
0.0
  0
LINE
  5
37C
330
1F
100
AcDbEntity
  8
0
  6
Continuous
 62
     7
370
    15
100
AcDbLine
 10
961.7282102603
 20
-98.9016106942
 30
0.0
 11
976.7281959552
 21
-100.9016091594
 31
0.0
  0
LINE
  5
37D
330
1F
100
AcDbEntity
  8
0
  6
Continuous
 62
     7
370
    15
100
AcDbLine
 10
1006.728167345
 20
-100.9016091594
 30
0.0
 11
1021.7281530399
 21
-98.9016106942
 31
0.0
  0
LINE
  5
37E
330
1F
100
AcDbEntity
  8
0
  6
Continuous
 62
     7
370
    15
100
AcDbLine
 10
1721.7283199329
 20
-96.9016103664
 30
0.0
 11
1721.7283199329
 21
-98.9016106942
 31
0.0
  0
LINE
  5
37F
330
1F
100
AcDbEntity
  8
0
  6
Continuous
 62
     7
370
    15
100
AcDbLine
 10
1781.7282627124
 20
-98.9016106942
 30
0.0
 11
1781.7282627124
 21
-96.9016103664
 31
0.0
  0
LINE
  5
380
330
1F
100
AcDbEntity
  8
0
  6
Continuous
 62
     7
370
    15
100
AcDbLine
 10
1721.7283199329
 20
-98.9016106942
 30
0.0
 11
1736.7281864185
 21
-100.9016091594
 31
0.0
  0
LINE
  5
381
330
1F
100
AcDbEntity
  8
0
  6
Continuous
 62
     7
370
    15
100
AcDbLine
 10
1766.7281578083
 20
-100.9016091594
 30
0.0
 11
1781.7282627124
 21
-98.9016106942
 31
0.0
  0
LINE
  5
382
330
1F
100
AcDbEntity
  8
0
  6
Continuous
 62
     7
370
    15
100
AcDbLine
 10
-558.2717930179
 20
-96.9016103664
 30
0.0
 11
-558.2717930179
 21
-98.9016106942
 31
0.0
  0
LINE
  5
383
330
1F
100
AcDbEntity
  8
0
  6
Continuous
 62
     7
370
    15
100
AcDbLine
 10
-498.2717980843
 20
-98.9016106942
 30
0.0
 11
-498.2717980843
 21
-96.9016103664
 31
0.0
  0
LINE
  5
384
330
1F
100
AcDbEntity
  8
0
  6
Continuous
 62
     7
370
    15
100
AcDbLine
 10
-558.2717930179
 20
-98.9016106942
 30
0.0
 11
-543.2717924219
 21
-100.9016091594
 31
0.0
  0
LINE
  5
385
330
1F
100
AcDbEntity
  8
0
  6
Continuous
 62
     7
370
    15
100
AcDbLine
 10
-513.2717986803
 20
-100.9016091594
 30
0.0
 11
-498.2717980843
 21
-98.9016106942
 31
0.0
  0
LINE
  5
386
330
1F
100
AcDbEntity
  8
0
  6
Continuous
 62
     7
370
    15
100
AcDbLine
 10
-657.2717944605
 20
-118.9016093159
 30
0.0
 11
-657.2717944605
 21
-143.9016096884
 31
0.0
  0
LINE
  5
387
330
1F
100
AcDbEntity
  8
0
  6
Continuous
 62
     7
370
    15
100
AcDbLine
 10
-658.271794508
 20
-142.9016095245
 30
0.0
 11
-658.271794508
 21
-119.9016094798
 31
0.0
  0
LINE
  5
388
330
1F
100
AcDbEntity
  8
0
  6
Continuous
 62
     7
370
    15
100
AcDbLine
 10
1881.728167345
 20
-119.9016094798
 30
0.0
 11
1881.728167345
 21
-142.9016095245
 31
0.0
  0
LINE
  5
389
330
1F
100
AcDbEntity
  8
0
  6
Continuous
 62
     7
370
    15
100
AcDbLine
 10
1880.7282398243
 20
-143.9016096884
 30
0.0
 11
1880.7282398243
 21
-118.9016093159
 31
0.0
  0
LWPOLYLINE
  5
38A
330
1F
100
AcDbEntity
  8
0
  6
Continuous
 62
     7
370
    15
100
AcDbPolyline
 90
       13
 70
   128
 43
0.0
 10
984.2101285953
 20
-143.8825045371
 10
984.4474742908
 20
-143.740837335
 10
985.3041122455
 20
-143.2555931279
 10
986.8072221775
 20
-142.5130272874
 10
989.0712450046
 20
-141.7121364394
 10
991.1508510608
 20
-141.380626581
 10
993.3056781787
 20
-141.4880406701
 10
995.1882312793
 20
-141.947683751
 10
997.0124910373
 20
-142.678604334
 10
998.5488603611
 20
-143.475115172
 10
999.2477844257
 20
-143.8832356253
 10
999.2781827945
 20
-143.9016096884
 10
999.2781827945
 20
-143.9016096884
  0
LWPOLYLINE
  5
38B
330
1F
100
AcDbEntity
  8
0
  6
Continuous
 62
     7
370
    15
100
AcDbPolyline
 90
       13
 70
   128
 43
0.0
 10
224.2101381321
 20
-143.8825045371
 10
224.4474838275
 20
-143.740837335
 10
225.3040621776
 20
-143.2555931279
 10
226.8072317142
 20
-142.5130272874
 10
229.0712545414
 20
-141.7121364394
 10
231.1509202022
 20
-141.380626581
 10
233.3057473201
 20
-141.4880406701
 10
235.1883004207
 20
-141.947683751
 10
237.0124409694
 20
-142.678604334
 10
238.5489295024
 20
-143.475115172
 10
239.2477343578
 20
-143.8832356253
 10
239.2781923313
 20
-143.9016096884
 10
239.2781923313
 20
-143.9016096884
  0
LWPOLYLINE
  5
38C
330
1F
100
AcDbEntity
  8
0
  6
Continuous
 62
     7
370
    15
100
AcDbPolyline
 90
       13
 70
   128
 43
0.0
 10
1744.2102382679
 20
-143.8825045371
 10
1744.4474647541
 20
-143.740837335
 10
1745.3041027088
 20
-143.2555931279
 10
1746.80733185
 20
-142.5130272874
 10
1749.0713546772
 20
-141.7121364394
 10
1751.1508415241
 20
-141.380626581
 10
1753.305668642
 20
-141.4880406701
 10
1755.1882217426
 20
-141.947683751
 10
1757.0123622913
 20
-142.678604334
 10
1758.5489700336
 20
-143.475115172
 10
1759.2477748889
 20
-143.8832356253
 10
1759.2782924671
 20
-143.9016096884
 10
1759.2782924671
 20
-143.9016096884
  0
SPLINE
  5
38D
330
1F
100
AcDbEntity
  8
0
  6
Continuous
 62
     7
370
    15
100
AcDbSpline
210
0.0
220
0.0
230
1.0
 70
     8
 71
     3
 72
    11
 73
     7
 74
     0
 42
0.000000001
 43
0.00000001
 40
0.0
 40
0.0
 40
0.0
 40
0.0
 40
0.2307237067022323
 40
0.4822370052340459
 40
0.7600034607801259
 40
1.0
 40
1.0
 40
1.0
 40
1.0
 10
-535.7898374300439
 20
-143.8825045370981
 30
0.0
 10
-535.7499056100554
 20
-143.8572904078303
 30
0.0
 10
-535.6664438732445
 20
-143.8045902047974
 30
0.0
 10
-534.7258032312424
 20
-143.2669669184801
 30
0.0
 10
-533.3722103511267
 20
-142.5300438136569
 30
0.0
 10
-532.0686206185677
 20
-142.1006462411397
 30
0.0
 10
-531.4643730621774
 20
-141.9016093605682
 30
0.0
  0
SPLINE
  5
38E
330
1F
100
AcDbEntity
  8
0
  6
Continuous
 62
     7
370
    15
100
AcDbSpline
210
0.0
220
0.0
230
1.0
 70
     8
 71
     3
 72
    14
 73
    10
 74
     0
 42
0.000000001
 43
0.00000001
 40
0.0
 40
0.0
 40
0.0
 40
0.0
 40
0.0700006100053128
 40
0.228257932644179
 40
0.3783915417294494
 40
0.5515643589057825
 40
0.7538583427788529
 40
0.9503468086910354
 40
1.0
 40
1.0
 40
1.0
 40
1.0
 10
-529.7717948656518
 20
-141.5277094238922
 30
0.0
 10
-529.4667150982256
 20
-141.4699594180572
 30
0.0
 10
-528.4719112386731
 20
-141.2816482456106
 30
0.0
 10
-526.691374782187
 20
-141.4307110298064
 30
0.0
 10
-524.6691229166465
 20
-141.9413847030691
 30
0.0
 10
-522.8074772670969
 20
-142.7304378440761
 30
0.0
 10
-521.3326253901399
 20
-143.5309648957265
 30
0.0
 10
-520.7593813104338
 20
-143.8790449873851
 30
0.0
 10
-520.7281069800231
 20
-143.8978218962075
 30
0.0
 10
-520.7217981319864
 20
-143.9016096883937
 30
0.0
  0
LINE
  5
38F
330
1F
100
AcDbEntity
  8
0
  6
Continuous
 62
     7
370
    15
100
AcDbLine
 10
1810.9281013507
 20
-144.3016099402
 30
0.0
 11
1810.9281013507
 21
-162.5016088256
 31
0.0
  0
LINE
  5
390
330
1F
100
AcDbEntity
  8
0
  6
Continuous
 62
     7
370
    15
100
AcDbLine
 10
1816.0281131763
 20
-162.5016088256
 30
0.0
 11
1816.0281131763
 21
-144.3016099402
 31
0.0
  0
LINE
  5
391
330
1F
100
AcDbEntity
  8
0
  6
Continuous
 62
     7
370
    15
100
AcDbLine
 10
1810.7283065815
 20
-162.3016091654
 30
0.0
 11
1810.7283065815
 21
-144.5016096005
 31
0.0
  0
LINE
  5
392
330
1F
100
AcDbEntity
  8
0
  6
Continuous
 62
     7
370
    15
100
AcDbLine
 10
-587.2717921834
 20
-158.9927094647
 30
0.0
 11
-587.2717921834
 21
-162.3016091654
 31
0.0
  0
LINE
  5
393
330
1F
100
AcDbEntity
  8
0
  6
Continuous
 62
     7
370
    15
100
AcDbLine
 10
-587.2717921834
 20
-144.5016096005
 30
0.0
 11
-587.2717921834
 21
-158.9927094647
 31
0.0
  0
LINE
  5
394
330
1F
100
AcDbEntity
  8
0
  6
Continuous
 62
     7
370
    15
100
AcDbLine
 10
-587.471795569
 20
-159.1183523306
 30
0.0
 11
-587.471795569
 21
-144.3016099402
 31
0.0
  0
LINE
  5
395
330
1F
100
AcDbEntity
  8
0
  6
Continuous
 62
     7
370
    15
100
AcDbLine
 10
-587.471795569
 20
-162.5016088256
 30
0.0
 11
-587.471795569
 21
-159.1183523306
 31
0.0
  0
LINE
  5
396
330
1F
100
AcDbEntity
  8
0
  6
Continuous
 62
     7
370
    15
100
AcDbLine
 10
-592.5717924934
 20
-159.1183523306
 30
0.0
 11
-592.5717924934
 21
-162.5016088256
 31
0.0
  0
LINE
  5
397
330
1F
100
AcDbEntity
  8
0
  6
Continuous
 62
     7
370
    15
100
AcDbLine
 10
-592.5717924934
 20
-144.3016099402
 30
0.0
 11
-592.5717924934
 21
-159.1183523306
 31
0.0
  0
LINE
  5
398
330
1F
100
AcDbEntity
  8
0
  6
Continuous
 62
     7
370
    15
100
AcDbLine
 10
1785.728211214
 20
-147.9980981567
 30
0.0
 11
1785.728211214
 21
-147.7516087362
 31
0.0
  0
LINE
  5
399
330
1F
100
AcDbEntity
  8
0
  6
Continuous
 62
     7
370
    15
100
AcDbLine
 10
1785.728211214
 20
-159.0516100296
 30
0.0
 11
1785.728211214
 21
-147.9980981567
 31
0.0
  0
LINE
  5
39A
330
1F
100
AcDbEntity
  8
0
  6
Continuous
 62
     7
370
    15
100
AcDbLine
 10
-578.2717962962
 20
-148.8081569442
 30
0.0
 11
-578.2717962962
 21
-159.0516100296
 31
0.0
  0
LINE
  5
39B
330
1F
100
AcDbEntity
  8
0
  6
Continuous
 62
     7
370
    15
100
AcDbLine
 10
-578.2717962962
 20
-147.7516087362
 30
0.0
 11
-578.2717962962
 21
-148.8081569442
 31
0.0
  0
LINE
  5
39C
330
1F
100
AcDbEntity
  8
0
  6
Continuous
 62
     7
370
    15
100
AcDbLine
 10
-576.271792243
 20
-158.4016102025
 30
0.0
 11
-576.271792243
 21
-148.401610426
 31
0.0
  0
LINE
  5
39D
330
1F
100
AcDbEntity
  8
0
  6
Continuous
 62
     7
370
    15
100
AcDbLine
 10
1783.7281177539
 20
-148.401610426
 30
0.0
 11
1783.7281177539
 21
-158.4016102025
 31
0.0
  0
LINE
  5
39E
330
1F
100
AcDbEntity
  8
0
  6
Continuous
 62
     7
370
    15
100
AcDbLine
 10
-632.9717946451
 20
-144.9266093442
 30
0.0
 11
-632.9717946451
 21
-161.8766094217
 31
0.0
  0
LINE
  5
39F
330
1F
100
AcDbEntity
  8
0
  6
Continuous
 62
     7
370
    15
100
AcDbLine
 10
-633.2717941355
 20
-161.5766099313
 30
0.0
 11
-633.2717941355
 21
-145.2266097659
 31
0.0
  0
LINE
  5
3A0
330
1F
100
AcDbEntity
  8
0
  6
Continuous
 62
     7
370
    15
100
AcDbLine
 10
1856.4281414051
 20
-148.2536716977
 30
0.0
 11
1856.4281414051
 21
-144.9266093442
 31
0.0
  0
LINE
  5
3A1
330
1F
100
AcDbEntity
  8
0
  6
Continuous
 62
     7
370
    15
100
AcDbLine
 10
1856.4281414051
 20
-161.8766094217
 30
0.0
 11
1856.4281414051
 21
-148.2536716977
 31
0.0
  0
LINE
  5
3A2
330
1F
100
AcDbEntity
  8
0
  6
Continuous
 62
     7
370
    15
100
AcDbLine
 10
1856.7283103962
 20
-148.4358998606
 30
0.0
 11
1856.7283103962
 21
-161.5766099313
 31
0.0
  0
LINE
  5
3A3
330
1F
100
AcDbEntity
  8
0
  6
Continuous
 62
     7
370
    15
100
AcDbLine
 10
1856.7283103962
 20
-145.2266097659
 30
0.0
 11
1856.7283103962
 21
-148.4358998606
 31
0.0
  0
LINE
  5
3A4
330
1F
100
AcDbEntity
  8
0
  6
Continuous
 62
     7
370
    15
100
AcDbLine
 10
-592.7717958789
 20
-164.1016079703
 30
0.0
 11
-632.7717949849
 21
-164.1016079703
 31
0.0
  0
LINE
  5
3A5
330
1F
100
AcDbEntity
  8
0
  6
Continuous
 62
     7
370
    15
100
AcDbLine
 10
-592.9965947967
 20
-163.90160831
 30
0.0
 11
-592.9717918139
 21
-163.90160831
 31
0.0
  0
LINE
  5
3A6
330
1F
100
AcDbEntity
  8
0
  6
Continuous
 62
     7
370
    15
100
AcDbLine
 10
-632.5717953246
 20
-163.90160831
 30
0.0
 11
-592.9965947967
 21
-163.90160831
 31
0.0
  0
LINE
  5
3A7
330
1F
100
AcDbEntity
  8
0
  6
Continuous
 62
     7
370
    15
100
AcDbLine
 10
-592.7968447309
 20
-166.9016106644
 30
0.0
 11
-592.7717958789
 21
-166.9016106644
 31
0.0
  0
LINE
  5
3A8
330
1F
100
AcDbEntity
  8
0
  6
Continuous
 62
     7
370
    15
100
AcDbLine
 10
-632.7717949849
 20
-166.9016106644
 30
0.0
 11
-592.7968447309
 21
-166.9016106644
 31
0.0
  0
LINE
  5
3A9
330
1F
100
AcDbEntity
  8
0
  6
Continuous
 62
     7
370
    15
100
AcDbLine
 10
-594.7717924815
 20
-168.9016109922
 30
0.0
 11
-630.771794657
 21
-168.9016109922
 31
0.0
  0
LINE
  5
3AA
330
1F
100
AcDbEntity
  8
0
  6
Continuous
 62
     7
370
    15
100
AcDbLine
 10
1854.2842815418
 20
-164.1016079703
 30
0.0
 11
1816.2281463642
 21
-164.1016079703
 31
0.0
  0
LINE
  5
3AB
330
1F
100
AcDbEntity
  8
0
  6
Continuous
 62
     7
370
    15
100
AcDbLine
 10
1856.2281082172
 20
-164.1016079703
 30
0.0
 11
1854.2842815418
 21
-164.1016079703
 31
0.0
  0
LINE
  5
3AC
330
1F
100
AcDbEntity
  8
0
  6
Continuous
 62
     7
370
    15
100
AcDbLine
 10
1854.1037986774
 20
-163.90160831
 30
0.0
 11
1856.0283134479
 21
-163.90160831
 31
0.0
  0
LINE
  5
3AD
330
1F
100
AcDbEntity
  8
0
  6
Continuous
 62
     7
370
    15
100
AcDbLine
 10
1816.428179552
 20
-163.90160831
 30
0.0
 11
1854.1037986774
 21
-163.90160831
 31
0.0
  0
LINE
  5
3AE
330
1F
100
AcDbEntity
  8
0
  6
Continuous
 62
     7
370
    15
100
AcDbLine
 10
1854.2842815418
 20
-166.9016106644
 30
0.0
 11
1856.2281082172
 21
-166.9016106644
 31
0.0
  0
LINE
  5
3AF
330
1F
100
AcDbEntity
  8
0
  6
Continuous
 62
     7
370
    15
100
AcDbLine
 10
1816.2281463642
 20
-166.9016106644
 30
0.0
 11
1854.2842815418
 21
-166.9016106644
 31
0.0
  0
LINE
  5
3B0
330
1F
100
AcDbEntity
  8
0
  6
Continuous
 62
     7
370
    15
100
AcDbLine
 10
1852.4787376422
 20
-168.9016109922
 30
0.0
 11
1818.2282398243
 21
-168.9016109922
 31
0.0
  0
LINE
  5
3B1
330
1F
100
AcDbEntity
  8
0
  6
Continuous
 62
     7
370
    15
100
AcDbLine
 10
1854.2282531757
 20
-168.9016109922
 30
0.0
 11
1852.4787376422
 21
-168.9016109922
 31
0.0
  0
LINE
  5
3B2
330
1F
100
AcDbEntity
  8
0
  6
Continuous
 62
     7
370
    15
100
AcDbLine
 10
-592.7717958789
 20
-116.7016093278
 30
0.0
 11
-632.7717949849
 21
-116.7016093278
 31
0.0
  0
LINE
  5
3B3
330
1F
100
AcDbEntity
  8
0
  6
Continuous
 62
     7
370
    15
100
AcDbLine
 10
-632.7717949849
 20
-163.6016106823
 30
0.0
 11
-592.7717958789
 21
-163.6016106823
 31
0.0
  0
SPLINE
  5
3B4
330
1F
100
AcDbEntity
  8
0
  6
Continuous
 62
     7
370
    15
100
AcDbSpline
210
0.0
220
0.0
230
1.0
 70
     8
 71
     3
 72
    25
 73
    21
 74
     0
 42
0.000000001
 43
0.00000001
 40
0.0
 40
0.0
 40
0.0
 40
0.0
 40
0.0640693144296347
 40
0.1453732769374986
 40
0.2036615677185432
 40
0.2636277849872437
 40
0.3230560891592011
 40
0.3839676420358706
 40
0.4406024706545419
 40
0.4883892090538861
 40
0.5363970803705469
 40
0.5990988336928803
 40
0.6541419757184429
 40
0.7106123420714158
 40
0.7696597035381638
 40
0.8302132616482101
 40
0.8768508880149902
 40
0.9246915201824627
 40
0.9714006025560886
 40
1.0
 40
1.0
 40
1.0
 40
1.0
 10
-632.2747071485956
 20
-118.9016093158647
 30
0.0
 10
-632.0406785171265
 20
-118.8770695264223
 30
0.0
 10
-631.5096675432036
 20
-118.821388743221
 30
0.0
 10
-630.0922763807151
 20
-119.791837390187
 30
0.0
 10
-628.5021248686845
 20
-121.1354842252615
 30
0.0
 10
-626.9529669429998
 20
-122.6520502138162
 30
0.0
 10
-625.3475002376904
 20
-124.4542074602049
 30
0.0
 10
-623.8415318616998
 20
-126.4946668255454
 30
0.0
 10
-622.6809314103531
 20
-128.705281503273
 30
0.0
 10
-622.1508715827451
 20
-131.0435517339853
 30
0.0
 10
-622.4555771000864
 20
-133.5390105357861
 30
0.0
 10
-623.5473861419131
 20
-135.8338003591796
 30
0.0
 10
-624.9907997583254
 20
-137.8970657966026
 30
0.0
 10
-626.5032390430371
 20
-139.6706613922331
 30
0.0
 10
-628.0552225090098
 20
-141.2503219829947
 30
0.0
 10
-629.4305507441121
 20
-142.4717464438491
 30
0.0
 10
-630.5737915300112
 20
-143.3389182680234
 30
0.0
 10
-631.4474293257593
 20
-143.8458174671723
 30
0.0
 10
-632.0693499947142
 20
-144.0659510415901
 30
0.0
 10
-632.2847050427916
 20
-143.9468426755397
 30
0.0
 10
-632.3664889883239
 20
-143.9016096883937
 30
0.0
  0
LWPOLYLINE
  5
3B5
330
1F
100
AcDbEntity
  8
0
  6
Continuous
 62
     7
370
    15
100
AcDbPolyline
 90
       19
 70
   128
 43
0.0
 10
-593.0863742929
 20
-143.9016096884
 10
-593.4722100597
 20
-143.9991973931
 10
-594.7299500208
 20
-143.4671300122
 10
-596.6541630428
 20
-141.9824118385
 10
-598.2719150584
 20
-140.4435987243
 10
-599.9970820945
 20
-138.5317233981
 10
-601.1580166619
 20
-137.0109737509
 10
-602.2181784015
 20
-135.2781244678
 10
-603.0830678742
 20
-133.0130461029
 10
-603.2568079632
 20
-130.9421248626
 10
-602.8291483622
 20
-128.9214574391
 10
-601.3369386297
 20
-126.0534751819
 10
-599.7559366029
 20
-123.9838170478
 10
-598.0782856446
 20
-122.1634856084
 10
-596.4722459417
 20
-120.6622522914
 10
-594.9963380795
 20
-119.5105834523
 10
-594.108377884
 20
-118.9931536683
 10
-593.4068759184
 20
-118.8016094857
 10
-593.4068759184
 20
-118.8016094857
  0
LINE
  5
3B6
330
1F
100
AcDbEntity
  8
0
  6
Continuous
 62
     7
370
    15
100
AcDbLine
 10
-632.4717936318
 20
-116.4016098374
 30
0.0
 11
-593.0717935067
 21
-116.4016098374
 31
0.0
  0
LINE
  5
3B7
330
1F
100
AcDbEntity
  8
0
  6
Continuous
 62
     7
370
    15
100
AcDbLine
 10
1856.2281082172
 20
-116.7016093278
 30
0.0
 11
1816.2281463642
 21
-116.7016093278
 31
0.0
  0
LINE
  5
3B8
330
1F
100
AcDbEntity
  8
0
  6
Continuous
 62
     7
370
    15
100
AcDbLine
 10
1816.2281463642
 20
-163.6016106823
 30
0.0
 11
1856.2281082172
 21
-163.6016106823
 31
0.0
  0
SPLINE
  5
3B9
330
1F
100
AcDbEntity
  8
0
  6
Continuous
 62
     7
370
    15
100
AcDbSpline
210
0.0
220
0.0
230
1.0
 70
     8
 71
     3
 72
    25
 73
    21
 74
     0
 42
0.000000001
 43
0.00000001
 40
0.0
 40
0.0
 40
0.0
 40
0.0
 40
0.0640701096337386
 40
0.1453727756758182
 40
0.2036618008915428
 40
0.2636268608185551
 40
0.3230558671993944
 40
0.3839677383652689
 40
0.440603362645431
 40
0.4883890851645299
 40
0.5363965442066045
 40
0.5990982721485892
 40
0.6541428976466709
 40
0.7106135120091401
 40
0.7696591392512667
 40
0.8302118071203234
 40
0.8768508083372619
 40
0.9246915488598582
 40
0.9714004767217994
 40
0.9999999999999999
 40
0.9999999999999999
 40
0.9999999999999999
 40
0.9999999999999999
 10
1816.725249101595
 20
-118.9016093158647
 30
0.0
 10
1816.95934732405
 20
-118.8770658751532
 30
0.0
 10
1817.490507775835
 20
-118.8213776904245
 30
0.0
 10
1818.90762217237
 20
-119.7918661731218
 30
0.0
 10
1820.497943797077
 20
-121.1354513637576
 30
0.0
 10
1822.046934346861
 20
-122.652087793871
 30
0.0
 10
1823.652524031268
 20
-124.454190698053
 30
0.0
 10
1825.158430845197
 20
-126.4946902040438
 30
0.0
 10
1826.319308718939
 20
-128.7052277762311
 30
0.0
 10
1826.848868911837
 20
-131.0435741826929
 30
0.0
 10
1826.544573636659
 20
-133.5390143003384
 30
0.0
 10
1825.45266144233
 20
-135.8338404608996
 30
0.0
 10
1824.009109336179
 20
-137.8970389660986
 30
0.0
 10
1822.496648787869
 20
-139.6706307782168
 30
0.0
 10
1820.944806609234
 20
-141.2503350385306
 30
0.0
 10
1819.569599677677
 20
-142.4717736446026
 30
0.0
 10
1818.426156354617
 20
-143.338904613798
 30
0.0
 10
1817.552524582722
 20
-143.8458187823568
 30
0.0
 10
1816.930644317011
 20
-144.0659506010595
 30
0.0
 10
1816.715255216924
 20
-143.9468427110145
 30
0.0
 10
1816.633457948641
 20
-143.9016096883937
 30
0.0
  0
LWPOLYLINE
  5
3BA
330
1F
100
AcDbEntity
  8
0
  6
Continuous
 62
     7
370
    15
100
AcDbPolyline
 90
       19
 70
   128
 43
0.0
 10
1855.9136341114
 20
-143.9016096884
 10
1855.5278728504
 20
-143.9991973931
 10
1854.269976427
 20
-143.4671300122
 10
1852.3459384937
 20
-141.9824118385
 10
1850.7280300159
 20
-140.4435987243
 10
1849.0028331775
 20
-138.5317233981
 10
1847.8419731159
 20
-137.0109737509
 10
1846.7817256946
 20
-135.2781244678
 10
1845.9169815082
 20
-133.0130461029
 10
1845.743174364
 20
-130.9421248626
 10
1846.170897295
 20
-128.9214574391
 10
1847.6631591816
 20
-126.0534751819
 10
1849.2441127796
 20
-123.9838170478
 10
1850.9216259021
 20
-122.1634856084
 10
1852.5278518695
 20
-120.6622522914
 10
1854.0036628742
 20
-119.5105834523
 10
1854.8915336628
 20
-118.9931536683
 10
1855.593199541
 20
-118.8016094857
 10
1855.593199541
 20
-118.8016094857
  0
LINE
  5
3BB
330
1F
100
AcDbEntity
  8
0
  6
Continuous
 62
     7
370
    15
100
AcDbLine
 10
1816.5283153553
 20
-116.4016098374
 30
0.0
 11
1855.9281776447
 21
-116.4016098374
 31
0.0
  0
LINE
  5
3BC
330
1F
100
AcDbEntity
  8
0
  6
Continuous
 62
     7
370
    15
100
AcDbLine
 10
206.2281916637
 20
-118.4016092339
 30
0.0
 11
207.2281787891
 21
-118.4016092339
 31
0.0
  0
LINE
  5
3BD
330
1F
100
AcDbEntity
  8
0
  6
Continuous
 62
     7
370
    15
100
AcDbLine
 10
207.2281787891
 20
-118.4016092339
 30
0.0
 11
207.2281787891
 21
-118.9016093159
 31
0.0
  0
LINE
  5
3BE
330
1F
100
AcDbEntity
  8
0
  6
Continuous
 62
     7
370
    15
100
AcDbLine
 10
207.2281787891
 20
-148.101609073
 30
0.0
 11
207.2281787891
 21
-148.401610426
 31
0.0
  0
LINE
  5
3BF
330
1F
100
AcDbEntity
  8
0
  6
Continuous
 62
     7
370
    15
100
AcDbLine
 10
177.2282073993
 20
-148.401610426
 30
0.0
 11
177.2282073993
 21
-148.101609073
 31
0.0
  0
LINE
  5
3C0
330
1F
100
AcDbEntity
  8
0
  6
Continuous
 62
     7
370
    15
100
AcDbLine
 10
177.2282073993
 20
-118.9016093159
 30
0.0
 11
177.2282073993
 21
-118.4016092339
 31
0.0
  0
LINE
  5
3C1
330
1F
100
AcDbEntity
  8
0
  6
Continuous
 62
     7
370
    15
100
AcDbLine
 10
177.2282073993
 20
-118.4016092339
 30
0.0
 11
178.2281945247
 21
-118.4016092339
 31
0.0
  0
LINE
  5
3C2
330
1F
100
AcDbEntity
  8
0
  6
Continuous
 62
     7
370
    15
100
AcDbLine
 10
-544.7717954617
 20
-118.4016092339
 30
0.0
 11
-543.7717934351
 21
-118.4016092339
 31
0.0
  0
LINE
  5
3C3
330
1F
100
AcDbEntity
  8
0
  6
Continuous
 62
     7
370
    15
100
AcDbLine
 10
-543.7717934351
 20
-118.4016092339
 30
0.0
 11
-543.7717934351
 21
-118.9016093159
 31
0.0
  0
LINE
  5
3C4
330
1F
100
AcDbEntity
  8
0
  6
Continuous
 62
     7
370
    15
100
AcDbLine
 10
-543.7717934351
 20
-148.101609073
 30
0.0
 11
-543.7717934351
 21
-148.401610426
 31
0.0
  0
LINE
  5
3C5
330
1F
100
AcDbEntity
  8
0
  6
Continuous
 62
     7
370
    15
100
AcDbLine
 10
-573.7717946272
 20
-148.401610426
 30
0.0
 11
-573.7717946272
 21
-148.101609073
 31
0.0
  0
LINE
  5
3C6
330
1F
100
AcDbEntity
  8
0
  6
Continuous
 62
     7
370
    15
100
AcDbLine
 10
-573.7717946272
 20
-118.9016093159
 30
0.0
 11
-573.7717946272
 21
-118.4016092339
 31
0.0
  0
LINE
  5
3C7
330
1F
100
AcDbEntity
  8
0
  6
Continuous
 62
     7
370
    15
100
AcDbLine
 10
-573.7717946272
 20
-118.4016092339
 30
0.0
 11
-572.7717926007
 21
-118.4016092339
 31
0.0
  0
LINE
  5
3C8
330
1F
100
AcDbEntity
  8
0
  6
Continuous
 62
     7
370
    15
100
AcDbLine
 10
-573.7717946272
 20
-148.401610426
 30
0.0
 11
-573.7717946272
 21
-154.4016095468
 31
0.0
  0
LINE
  5
3C9
330
1F
100
AcDbEntity
  8
0
  6
Continuous
 62
     7
370
    15
100
AcDbLine
 10
-543.7717934351
 20
-148.401610426
 30
0.0
 11
-543.7717934351
 21
-154.4016095468
 31
0.0
  0
LINE
  5
3CA
330
1F
100
AcDbEntity
  8
0
  6
Continuous
 62
     7
370
    15
100
AcDbLine
 10
-573.7717946272
 20
-154.4016095468
 30
0.0
 11
-543.7717934351
 21
-154.4016095468
 31
0.0
  0
LINE
  5
3CB
330
1F
100
AcDbEntity
  8
0
  6
Continuous
 62
     7
370
    15
100
AcDbLine
 10
-573.7717946272
 20
-148.401610426
 30
0.0
 11
-543.7717934351
 21
-148.401610426
 31
0.0
  0
LINE
  5
3CC
330
1F
100
AcDbEntity
  8
0
  6
Continuous
 62
     7
370
    15
100
AcDbLine
 10
177.2282073993
 20
-148.401610426
 30
0.0
 11
177.2282073993
 21
-154.4016095468
 31
0.0
  0
LINE
  5
3CD
330
1F
100
AcDbEntity
  8
0
  6
Continuous
 62
     7
370
    15
100
AcDbLine
 10
207.2281787891
 20
-148.401610426
 30
0.0
 11
207.2281787891
 21
-154.4016095468
 31
0.0
  0
LINE
  5
3CE
330
1F
100
AcDbEntity
  8
0
  6
Continuous
 62
     7
370
    15
100
AcDbLine
 10
177.2282073993
 20
-154.4016095468
 30
0.0
 11
207.2281787891
 21
-154.4016095468
 31
0.0
  0
LINE
  5
3CF
330
1F
100
AcDbEntity
  8
0
  6
Continuous
 62
     7
370
    15
100
AcDbLine
 10
177.2282073993
 20
-148.401610426
 30
0.0
 11
207.2281787891
 21
-148.401610426
 31
0.0
  0
LINE
  5
3D0
330
1F
100
AcDbEntity
  8
0
  6
Continuous
 62
     7
370
    15
100
AcDbLine
 10
291.728193571
 20
-154.9016086975
 30
0.0
 11
291.728193571
 21
-143.9016096884
 31
0.0
  0
LINE
  5
3D1
330
1F
100
AcDbEntity
  8
0
  6
Continuous
 62
     7
370
    15
100
AcDbLine
 10
291.728193571
 20
-118.9016093159
 30
0.0
 11
291.728193571
 21
-114.9016095915
 31
0.0
  0
LINE
  5
3D2
330
1F
100
AcDbEntity
  8
0
  6
Continuous
 62
     7
370
    15
100
AcDbLine
 10
291.728193571
 20
-154.9016086975
 30
0.0
 11
207.2281787891
 21
-154.9016086975
 31
0.0
  0
LINE
  5
3D3
330
1F
100
AcDbEntity
  8
0
  6
Continuous
 62
     7
370
    15
100
AcDbLine
 10
177.2282073993
 20
-154.9016086975
 30
0.0
 11
-543.7717934351
 21
-154.9016086975
 31
0.0
  0
LINE
  5
3D4
330
1F
100
AcDbEntity
  8
0
  6
Continuous
 62
     7
370
    15
100
AcDbLine
 10
-573.7717946272
 20
-154.9016086975
 30
0.0
 11
-576.271792243
 21
-154.9016086975
 31
0.0
  0
LINE
  5
3D5
330
1F
100
AcDbEntity
  8
0
  6
Continuous
 62
     7
370
    15
100
AcDbLine
 10
-633.2717941355
 20
-154.9016086975
 30
0.0
 11
-658.271794508
 21
-154.9016086975
 31
0.0
  0
LINE
  5
3D6
330
1F
100
AcDbEntity
  8
0
  6
Continuous
 62
     7
370
    15
100
AcDbLine
 10
-658.271794508
 20
-154.9016086975
 30
0.0
 11
-658.271794508
 21
-142.9016095245
 31
0.0
  0
LINE
  5
3D7
330
1F
100
AcDbEntity
  8
0
  6
Continuous
 62
     7
370
    15
100
AcDbLine
 10
-658.271794508
 20
-119.9016094798
 30
0.0
 11
-658.271794508
 21
-114.9016095915
 31
0.0
  0
LWPOLYLINE
  5
3D8
330
1F
100
AcDbEntity
  8
0
  6
Continuous
 62
     7
370
    15
100
AcDbPolyline
 90
        3
 70
   128
 43
0.0
 10
-588.7717952233
 20
-117.901609152
 10
-591.1965270739
 20
-118.0924399415
 10
-592.7717958789
 20
-118.4266301462
  0
LINE
  5
3D9
330
1F
100
AcDbEntity
  8
0
  6
Continuous
 62
     7
370
    15
100
AcDbLine
 10
-576.271792243
 20
-148.9016095766
 30
0.0
 11
-573.7717946272
 21
-148.9016095766
 31
0.0
  0
LINE
  5
3DA
330
1F
100
AcDbEntity
  8
0
  6
Continuous
 62
     7
370
    15
100
AcDbLine
 10
-543.7717934351
 20
-148.9016095766
 30
0.0
 11
-527.7717908125
 21
-148.9016095766
 31
0.0
  0
ARC
  5
3DB
330
1F
100
AcDbEntity
  8
0
  6
Continuous
 62
     7
370
    15
100
AcDbCircle
 10
-527.771794508
 20
-133.4016095021
 30
0.0
 40
15.50000000000004
100
AcDbArc
 50
270.0
 51
317.3576900201
  0
LINE
  5
3DC
330
1F
100
AcDbEntity
  8
0
  6
Continuous
 62
     7
370
    15
100
AcDbLine
 10
-535.7717921238
 20
-117.901609152
 30
0.0
 11
-545.271796475
 21
-117.901609152
 31
0.0
  0
LINE
  5
3DD
330
1F
100
AcDbEntity
  8
0
  6
Continuous
 62
     7
370
    15
100
AcDbLine
 10
-572.2717915874
 20
-117.901609152
 30
0.0
 11
-588.7717952233
 21
-117.901609152
 31
0.0
  0
ARC
  5
3DE
330
1F
100
AcDbEntity
  8
0
  6
Continuous
 62
     7
370
    15
100
AcDbCircle
 10
161.228205492
 20
-133.4016095021
 30
0.0
 40
15.49999999999998
100
AcDbArc
 50
90.0
 51
110.6935412312
  0
ARC
  5
3DF
330
1F
100
AcDbEntity
  8
0
  6
Continuous
 62
     7
370
    15
100
AcDbCircle
 10
161.228205492
 20
-133.4016095021
 30
0.0
 40
15.5
100
AcDbArc
 50
222.6423099799
 51
270.0
  0
LINE
  5
3E0
330
1F
100
AcDbEntity
  8
0
  6
Continuous
 62
     7
370
    15
100
AcDbLine
 10
161.228234579
 20
-148.9016095766
 30
0.0
 11
177.2282073993
 21
-148.9016095766
 31
0.0
  0
LINE
  5
3E1
330
1F
100
AcDbEntity
  8
0
  6
Continuous
 62
     7
370
    15
100
AcDbLine
 10
207.2281787891
 20
-148.9016095766
 30
0.0
 11
222.2282240886
 21
-148.9016095766
 31
0.0
  0
ARC
  5
3E2
330
1F
100
AcDbEntity
  8
0
  6
Continuous
 62
     7
370
    15
100
AcDbCircle
 10
222.228205492
 20
-133.4016095021
 30
0.0
 40
15.5
100
AcDbArc
 50
270.0
 51
312.1034488707
  0
LINE
  5
3E3
330
1F
100
AcDbEntity
  8
0
  6
Continuous
 62
     7
370
    15
100
AcDbLine
 10
224.2281983394
 20
-118.0311831304
 30
0.0
 11
222.2282240886
 21
-117.901609152
 31
0.0
  0
LINE
  5
3E4
330
1F
100
AcDbEntity
  8
0
  6
Continuous
 62
     7
370
    15
100
AcDbLine
 10
222.2282240886
 20
-117.901609152
 30
0.0
 11
205.7282279033
 21
-117.901609152
 31
0.0
  0
LINE
  5
3E5
330
1F
100
AcDbEntity
  8
0
  6
Continuous
 62
     7
370
    15
100
AcDbLine
 10
178.7282178897
 20
-117.901609152
 30
0.0
 11
161.228234579
 21
-117.901609152
 31
0.0
  0
LINE
  5
3E6
330
1F
100
AcDbEntity
  8
0
  6
Continuous
 62
     7
370
    15
100
AcDbLine
 10
291.728193571
 20
-114.9016095915
 30
0.0
 11
239.2281840343
 21
-114.9016095915
 31
0.0
  0
LINE
  5
3E7
330
1F
100
AcDbEntity
  8
0
  6
Continuous
 62
     7
370
    15
100
AcDbLine
 10
224.2281983394
 20
-114.9016095915
 30
0.0
 11
-520.7717915278
 21
-114.9016095915
 31
0.0
  0
LINE
  5
3E8
330
1F
100
AcDbEntity
  8
0
  6
Continuous
 62
     7
370
    15
100
AcDbLine
 10
-535.7717921238
 20
-114.9016095915
 30
0.0
 11
-658.271794508
 21
-114.9016095915
 31
0.0
  0
LINE
  5
3E9
330
1F
100
AcDbEntity
  8
0
  6
Continuous
 62
     7
370
    15
100
AcDbLine
 10
162.2282217044
 20
-148.401610426
 30
0.0
 11
177.2282073993
 21
-148.401610426
 31
0.0
  0
LINE
  5
3EA
330
1F
100
AcDbEntity
  8
0
  6
Continuous
 62
     7
370
    15
100
AcDbLine
 10
207.2281787891
 20
-148.401610426
 30
0.0
 11
222.2282240886
 21
-148.401610426
 31
0.0
  0
LINE
  5
3EB
330
1F
100
AcDbEntity
  8
0
  6
Continuous
 62
     7
370
    15
100
AcDbLine
 10
222.2282240886
 20
-118.4016092339
 30
0.0
 11
207.2281787891
 21
-118.4016092339
 31
0.0
  0
LINE
  5
3EC
330
1F
100
AcDbEntity
  8
0
  6
Continuous
 62
     7
370
    15
100
AcDbLine
 10
177.2282073993
 20
-118.4016092339
 30
0.0
 11
162.2282217044
 21
-118.4016092339
 31
0.0
  0
ARC
  5
3ED
330
1F
100
AcDbEntity
  8
0
  6
Continuous
 62
     7
370
    15
100
AcDbCircle
 10
222.228205492
 20
-133.4016095021
 30
0.0
 40
15.0
100
AcDbArc
 50
270.0
 51
309.9445051898
  0
LINE
  5
3EE
330
1F
100
AcDbEntity
  8
0
  6
Continuous
 62
     7
370
    15
100
AcDbLine
 10
224.2281983394
 20
-118.5355408707
 30
0.0
 11
222.2282240886
 21
-118.4016092339
 31
0.0
  0
LWPOLYLINE
  5
3EF
330
1F
100
AcDbEntity
  8
0
  6
Continuous
 62
     7
370
    15
100
AcDbPolyline
 90
        3
 70
   128
 43
0.0
 10
162.2282217044
 20
-118.4016092339
 10
159.8817060489
 20
-118.5862839812
 10
158.387656023
 20
-118.9016093159
  0
ARC
  5
3F0
330
1F
100
AcDbEntity
  8
0
  6
Continuous
 62
     7
370
    15
100
AcDbCircle
 10
162.228205492
 20
-133.4016095021
 30
0.0
 40
15.0
100
AcDbArc
 50
224.4270040008
 51
270.0
  0
LINE
  5
3F1
330
1F
100
AcDbEntity
  8
0
  6
Continuous
 62
     7
370
    15
100
AcDbLine
 10
-578.2717962962
 20
-148.401610426
 30
0.0
 11
-573.7717946272
 21
-148.401610426
 31
0.0
  0
LINE
  5
3F2
330
1F
100
AcDbEntity
  8
0
  6
Continuous
 62
     7
370
    15
100
AcDbLine
 10
-543.7717934351
 20
-148.401610426
 30
0.0
 11
-528.7717928391
 21
-148.401610426
 31
0.0
  0
LWPOLYLINE
  5
3F3
330
1F
100
AcDbEntity
  8
0
  6
Continuous
 62
     7
370
    15
100
AcDbPolyline
 90
        3
 70
   128
 43
0.0
 10
-588.7717952233
 20
-118.4016092339
 10
-591.1183108788
 20
-118.5862839812
 10
-592.6123683553
 20
-118.9016093159
  0
ARC
  5
3F4
330
1F
100
AcDbEntity
  8
0
  6
Continuous
 62
     7
370
    15
100
AcDbCircle
 10
-528.771794508
 20
-133.4016095021
 30
0.0
 40
15.00000000000009
100
AcDbArc
 50
270.0
 51
315.5729959992
  0
LINE
  5
3F5
330
1F
100
AcDbEntity
  8
0
  6
Continuous
 62
     7
370
    15
100
AcDbLine
 10
-535.7717921238
 20
-118.4016092339
 30
0.0
 11
-543.7717934351
 21
-118.4016092339
 31
0.0
  0
LINE
  5
3F6
330
1F
100
AcDbEntity
  8
0
  6
Continuous
 62
     7
370
    15
100
AcDbLine
 10
-573.7717946272
 20
-118.4016092339
 30
0.0
 11
-588.7717952233
 21
-118.4016092339
 31
0.0
  0
LINE
  5
3F7
330
1F
100
AcDbEntity
  8
0
  6
Continuous
 62
     7
370
    15
100
AcDbLine
 10
-560.29000629
 20
-122.4016098896
 30
0.0
 11
-587.7717931967
 21
-122.4016098896
 31
0.0
  0
LINE
  5
3F8
330
1F
100
AcDbEntity
  8
0
  6
Continuous
 62
     7
370
    15
100
AcDbLine
 10
-529.7717948657
 20
-122.4016098896
 30
0.0
 11
-560.29000629
 21
-122.4016098896
 31
0.0
  0
LINE
  5
3F9
330
1F
100
AcDbEntity
  8
0
  6
Continuous
 62
     7
370
    15
100
AcDbLine
 10
-560.29000629
 20
-120.9016096437
 30
0.0
 11
-587.7717931967
 21
-120.9016096437
 31
0.0
  0
LINE
  5
3FA
330
1F
100
AcDbEntity
  8
0
  6
Continuous
 62
     7
370
    15
100
AcDbLine
 10
-529.7717948657
 20
-120.9016096437
 30
0.0
 11
-560.29000629
 21
-120.9016096437
 31
0.0
  0
LINE
  5
3FB
330
1F
100
AcDbEntity
  8
0
  6
Continuous
 62
     7
370
    15
100
AcDbLine
 10
163.2282088298
 20
-141.9016093606
 30
0.0
 11
221.2281773586
 21
-141.9016093606
 31
0.0
  0
LINE
  5
3FC
330
1F
100
AcDbEntity
  8
0
  6
Continuous
 62
     7
370
    15
100
AcDbLine
 10
163.2282088298
 20
-140.4016091147
 30
0.0
 11
221.2281773586
 21
-140.4016091147
 31
0.0
  0
LINE
  5
3FD
330
1F
100
AcDbEntity
  8
0
  6
Continuous
 62
     7
370
    15
100
AcDbLine
 10
-587.7717931967
 20
-141.9016093606
 30
0.0
 11
-529.7717948657
 21
-141.9016093606
 31
0.0
  0
LINE
  5
3FE
330
1F
100
AcDbEntity
  8
0
  6
Continuous
 62
     7
370
    15
100
AcDbLine
 10
-587.7717931967
 20
-140.4016091147
 30
0.0
 11
-529.7717948657
 21
-140.4016091147
 31
0.0
  0
LINE
  5
3FF
330
1F
100
AcDbEntity
  8
0
  6
Continuous
 62
     7
370
    15
100
AcDbLine
 10
190.7100031871
 20
-122.4016098896
 30
0.0
 11
163.2282088298
 21
-122.4016098896
 31
0.0
  0
LINE
  5
400
330
1F
100
AcDbEntity
  8
0
  6
Continuous
 62
     7
370
    15
100
AcDbLine
 10
221.2281773586
 20
-122.4016098896
 30
0.0
 11
190.7100031871
 21
-122.4016098896
 31
0.0
  0
LINE
  5
401
330
1F
100
AcDbEntity
  8
0
  6
Continuous
 62
     7
370
    15
100
AcDbLine
 10
190.7100031871
 20
-120.9016096437
 30
0.0
 11
163.2282088298
 21
-120.9016096437
 31
0.0
  0
LINE
  5
402
330
1F
100
AcDbEntity
  8
0
  6
Continuous
 62
     7
370
    15
100
AcDbLine
 10
221.2281773586
 20
-120.9016096437
 30
0.0
 11
190.7100031871
 21
-120.9016096437
 31
0.0
  0
LINE
  5
403
330
1F
100
AcDbEntity
  8
0
  6
Continuous
 62
     7
370
    15
100
AcDbLine
 10
-529.7717948657
 20
-139.4332841629
 30
0.0
 11
-587.7717931967
 21
-139.4332841629
 31
0.0
  0
LINE
  5
404
330
1F
100
AcDbEntity
  8
0
  6
Continuous
 62
     7
370
    15
100
AcDbLine
 10
-572.330777834
 20
-123.4220376828
 30
0.0
 11
-529.7717948657
 21
-123.4220376828
 31
0.0
  0
LINE
  5
405
330
1F
100
AcDbEntity
  8
0
  6
Continuous
 62
     7
370
    15
100
AcDbLine
 10
-587.7717931967
 20
-123.4220376828
 30
0.0
 11
-572.330777834
 21
-123.4220376828
 31
0.0
  0
LINE
  5
406
330
1F
100
AcDbEntity
  8
0
  6
Continuous
 62
     7
370
    15
100
AcDbLine
 10
-587.7717931967
 20
-122.4016098896
 30
0.0
 11
-529.7717948657
 21
-122.4016098896
 31
0.0
  0
LINE
  5
407
330
1F
100
AcDbEntity
  8
0
  6
Continuous
 62
     7
370
    15
100
AcDbLine
 10
221.2281773586
 20
-139.4332841629
 30
0.0
 11
163.2282088298
 21
-139.4332841629
 31
0.0
  0
LINE
  5
408
330
1F
100
AcDbEntity
  8
0
  6
Continuous
 62
     7
370
    15
100
AcDbLine
 10
178.6692092914
 20
-123.4220376828
 30
0.0
 11
221.2281773586
 21
-123.4220376828
 31
0.0
  0
LINE
  5
409
330
1F
100
AcDbEntity
  8
0
  6
Continuous
 62
     7
370
    15
100
AcDbLine
 10
163.2282088298
 20
-123.4220376828
 30
0.0
 11
178.6692092914
 21
-123.4220376828
 31
0.0
  0
LINE
  5
40A
330
1F
100
AcDbEntity
  8
0
  6
Continuous
 62
     7
370
    15
100
AcDbLine
 10
163.2282088298
 20
-122.4016098896
 30
0.0
 11
221.2281773586
 21
-122.4016098896
 31
0.0
  0
LINE
  5
40B
330
1F
100
AcDbEntity
  8
0
  6
Continuous
 62
     7
370
    15
100
AcDbLine
 10
-573.7717946272
 20
-156.4016098747
 30
0.0
 11
-543.7717934351
 21
-156.4016098747
 31
0.0
  0
LINE
  5
40C
330
1F
100
AcDbEntity
  8
0
  6
Continuous
 62
     7
370
    15
100
AcDbLine
 10
-571.7480902772
 20
-158.4016102025
 30
0.0
 11
-571.7717980247
 21
-158.4016102025
 31
0.0
  0
LINE
  5
40D
330
1F
100
AcDbEntity
  8
0
  6
Continuous
 62
     7
370
    15
100
AcDbLine
 10
-545.7717974883
 20
-158.4016102025
 30
0.0
 11
-571.7480902772
 21
-158.4016102025
 31
0.0
  0
LINE
  5
40E
330
1F
100
AcDbEntity
  8
0
  6
Continuous
 62
     7
370
    15
100
AcDbLine
 10
177.2282073993
 20
-156.4016098747
 30
0.0
 11
207.2281787891
 21
-156.4016098747
 31
0.0
  0
LINE
  5
40F
330
1F
100
AcDbEntity
  8
0
  6
Continuous
 62
     7
370
    15
100
AcDbLine
 10
179.2519042987
 20
-158.4016102025
 30
0.0
 11
179.2281816501
 21
-158.4016102025
 31
0.0
  0
LINE
  5
410
330
1F
100
AcDbEntity
  8
0
  6
Continuous
 62
     7
370
    15
100
AcDbLine
 10
205.2282045383
 20
-158.4016102025
 30
0.0
 11
179.2519042987
 21
-158.4016102025
 31
0.0
  0
LINE
  5
411
330
1F
100
AcDbEntity
  8
0
  6
Continuous
 62
     7
370
    15
100
AcDbLine
 10
-571.7717980247
 20
-117.40160907
 30
0.0
 11
-545.7717974883
 21
-117.40160907
 31
0.0
  0
LINE
  5
412
330
1F
100
AcDbEntity
  8
0
  6
Continuous
 62
     7
370
    15
100
AcDbLine
 10
-543.7717934351
 20
-119.4016093978
 30
0.0
 11
-573.7717946272
 21
-119.4016093978
 31
0.0
  0
LINE
  5
413
330
1F
100
AcDbEntity
  8
0
  6
Continuous
 62
     7
370
    15
100
AcDbLine
 10
-573.7717946272
 20
-120.4016095617
 30
0.0
 11
-543.7717934351
 21
-120.4016095617
 31
0.0
  0
LINE
  5
414
330
1F
100
AcDbEntity
  8
0
  6
Continuous
 62
     7
370
    15
100
AcDbLine
 10
177.2282073993
 20
-120.4016095617
 30
0.0
 11
207.2281787891
 21
-120.4016095617
 31
0.0
  0
LINE
  5
415
330
1F
100
AcDbEntity
  8
0
  6
Continuous
 62
     7
370
    15
100
AcDbLine
 10
207.2281787891
 20
-119.4016093978
 30
0.0
 11
177.2282073993
 21
-119.4016093978
 31
0.0
  0
LINE
  5
416
330
1F
100
AcDbEntity
  8
0
  6
Continuous
 62
     7
370
    15
100
AcDbLine
 10
179.2281816501
 20
-117.40160907
 30
0.0
 11
205.2282045383
 21
-117.40160907
 31
0.0
  0
LINE
  5
417
330
1F
100
AcDbEntity
  8
0
  6
Continuous
 62
     7
370
    15
100
AcDbLine
 10
206.4562986393
 20
-142.4016094425
 30
0.0
 11
206.9281886119
 21
-142.4016094425
 31
0.0
  0
LINE
  5
418
330
1F
100
AcDbEntity
  8
0
  6
Continuous
 62
     7
370
    15
100
AcDbLine
 10
177.5281975765
 20
-142.4016094425
 30
0.0
 11
206.4562986393
 21
-142.4016094425
 31
0.0
  0
LINE
  5
419
330
1F
100
AcDbEntity
  8
0
  6
Continuous
 62
     7
370
    15
100
AcDbLine
 10
206.746632864
 20
-142.7016098642
 30
0.0
 11
177.2282073993
 21
-142.7016098642
 31
0.0
  0
LINE
  5
41A
330
1F
100
AcDbEntity
  8
0
  6
Continuous
 62
     7
370
    15
100
AcDbLine
 10
207.2281787891
 20
-142.7016098642
 30
0.0
 11
206.746632864
 21
-142.7016098642
 31
0.0
  0
LINE
  5
41B
330
1F
100
AcDbEntity
  8
0
  6
Continuous
 62
     7
370
    15
100
AcDbLine
 10
206.746632864
 20
-148.101609073
 30
0.0
 11
207.2281787891
 21
-148.101609073
 31
0.0
  0
LINE
  5
41C
330
1F
100
AcDbEntity
  8
0
  6
Continuous
 62
     7
370
    15
100
AcDbLine
 10
177.2282073993
 20
-148.101609073
 30
0.0
 11
206.746632864
 21
-148.101609073
 31
0.0
  0
LINE
  5
41D
330
1F
100
AcDbEntity
  8
0
  6
Continuous
 62
     7
370
    15
100
AcDbLine
 10
-544.2533468109
 20
-142.7016098642
 30
0.0
 11
-573.7717946272
 21
-142.7016098642
 31
0.0
  0
LINE
  5
41E
330
1F
100
AcDbEntity
  8
0
  6
Continuous
 62
     7
370
    15
100
AcDbLine
 10
-543.7717934351
 20
-142.7016098642
 30
0.0
 11
-544.2533468109
 21
-142.7016098642
 31
0.0
  0
LINE
  5
41F
330
1F
100
AcDbEntity
  8
0
  6
Continuous
 62
     7
370
    15
100
AcDbLine
 10
-544.2533468109
 20
-148.101609073
 30
0.0
 11
-543.7717934351
 21
-148.101609073
 31
0.0
  0
LINE
  5
420
330
1F
100
AcDbEntity
  8
0
  6
Continuous
 62
     7
370
    15
100
AcDbLine
 10
-573.7717946272
 20
-148.101609073
 30
0.0
 11
-544.2533468109
 21
-148.101609073
 31
0.0
  0
LINE
  5
421
330
1F
100
AcDbEntity
  8
0
  6
Continuous
 62
     7
370
    15
100
AcDbLine
 10
-544.5437108379
 20
-142.4016094425
 30
0.0
 11
-544.0717910629
 21
-142.4016094425
 31
0.0
  0
LINE
  5
422
330
1F
100
AcDbEntity
  8
0
  6
Continuous
 62
     7
370
    15
100
AcDbLine
 10
-573.4717969995
 20
-142.4016094425
 30
0.0
 11
-544.5437108379
 21
-142.4016094425
 31
0.0
  0
LINE
  5
423
330
1F
100
AcDbEntity
  8
0
  6
Continuous
 62
     7
370
    15
100
AcDbLine
 10
984.2781970996
 20
-143.9016096884
 30
0.0
 11
999.1781662006
 21
-143.9016096884
 31
0.0
  0
LINE
  5
424
330
1F
100
AcDbEntity
  8
0
  6
Continuous
 62
     7
370
    15
100
AcDbLine
 10
998.1782386798
 20
-144.9016098523
 30
0.0
 11
985.2782438297
 21
-144.9016098523
 31
0.0
  0
LINE
  5
425
330
1F
100
AcDbEntity
  8
0
  6
Continuous
 62
     7
370
    15
100
AcDbLine
 10
1744.2781875629
 20
-143.9016096884
 30
0.0
 11
1759.1781566639
 21
-143.9016096884
 31
0.0
  0
LINE
  5
426
330
1F
100
AcDbEntity
  8
0
  6
Continuous
 62
     7
370
    15
100
AcDbLine
 10
1758.1782291431
 20
-144.9016098523
 30
0.0
 11
1745.2781150837
 21
-144.9016098523
 31
0.0
  0
LINE
  5
427
330
1F
100
AcDbEntity
  8
0
  6
Continuous
 62
     7
370
    15
100
AcDbLine
 10
-535.7217912775
 20
-143.9016096884
 30
0.0
 11
-520.8217998248
 21
-143.9016096884
 31
0.0
  0
LINE
  5
428
330
1F
100
AcDbEntity
  8
0
  6
Continuous
 62
     7
370
    15
100
AcDbLine
 10
-521.8218018513
 20
-144.9016098523
 30
0.0
 11
-534.7217967015
 21
-144.9016098523
 31
0.0
  0
LINE
  5
429
330
1F
100
AcDbEntity
  8
0
  6
Continuous
 62
     7
370
    15
100
AcDbLine
 10
224.2782066364
 20
-143.9016096884
 30
0.0
 11
239.1781757373
 21
-143.9016096884
 31
0.0
  0
LINE
  5
42A
330
1F
100
AcDbEntity
  8
0
  6
Continuous
 62
     7
370
    15
100
AcDbLine
 10
238.1781886119
 20
-144.9016098523
 30
0.0
 11
225.2781937618
 21
-144.9016098523
 31
0.0
  0
LWPOLYLINE
  5
42B
330
1F
100
AcDbEntity
  8
0
  6
Continuous
 62
     7
370
    15
100
AcDbPolyline
 90
       13
 70
   128
 43
0.0
 10
239.2003486652
 20
-118.9181449482
 10
238.9527509708
 20
-119.0649251112
 10
238.0914638538
 20
-119.548724837
 10
236.5847776432
 20
-120.2846792185
 10
234.3245695133
 20
-121.0700486445
 10
232.2545598049
 20
-121.3877656156
 10
230.1162431736
 20
-121.2725209662
 10
228.2424519558
 20
-120.8114920774
 10
226.4305303592
 20
-120.085016697
 10
224.9216387767
 20
-119.3049558097
 10
224.2529938716
 20
-118.9164545977
 10
224.2281983394
 20
-118.9016093159
 10
224.2281983394
 20
-118.9016093159
  0
LWPOLYLINE
  5
42C
330
1F
100
AcDbEntity
  8
0
  6
Continuous
 62
     7
370
    15
100
AcDbPolyline
 90
       13
 70
   128
 43
0.0
 10
1759.2003295917
 20
-118.9181449482
 10
1758.9528511066
 20
-119.0649251112
 10
1758.0914447803
 20
-119.548724837
 10
1756.584877779
 20
-120.2846792185
 10
1754.3246696491
 20
-121.0700486445
 10
1752.2544811267
 20
-121.3877656156
 10
1750.1163433094
 20
-121.2725209662
 10
1748.2423732776
 20
-120.8114920774
 10
1746.430630495
 20
-120.085016697
 10
1744.9216793079
 20
-119.3049558097
 10
1744.2529151935
 20
-118.9164545977
 10
1744.2281196613
 20
-118.9016093159
 10
1744.2281196613
 20
-118.9016093159
  0
SPLINE
  5
42D
330
1F
100
AcDbEntity
  8
0
  6
Continuous
 62
     7
370
    15
100
AcDbSpline
210
0.0
220
0.0
230
1.0
 70
     8
 71
     3
 72
    13
 73
     9
 74
     0
 42
0.000000001
 43
0.00000001
 40
0.0
 40
0.0
 40
0.0
 40
0.0
 40
0.1503027973286857
 40
0.3119081930209656
 40
0.4904256738698847
 40
0.6920127709330646
 40
0.8499273164763812
 40
1.0
 40
1.0
 40
1.0
 40
1.0
 10
-520.7996566992242
 20
-118.918144948177
 30
0.0
 10
-520.8429640584035
 20
-118.9446126609048
 30
0.0
 10
-520.9328354406146
 20
-118.9995384280698
 30
0.0
 10
-521.8710502180097
 20
-119.5421239323349
 30
0.0
 10
-523.4002309184608
 20
-120.3200196635458
 30
0.0
 10
-525.4332238356486
 20
-121.0784176924809
 30
0.0
 10
-527.7066297586368
 20
-121.4814741151137
 30
0.0
 10
-529.0951915196478
 20
-121.345036735038
 30
0.0
 10
-529.7717948656518
 20
-121.2785550051853
 30
0.0
  0
SPLINE
  5
42E
330
1F
100
AcDbEntity
  8
0
  6
Continuous
 62
     7
370
    15
100
AcDbSpline
210
0.0
220
0.0
230
1.0
 70
     8
 71
     3
 72
    12
 73
     8
 74
     0
 42
0.000000001
 43
0.00000001
 40
0.0
 40
0.0
 40
0.0
 40
0.0
 40
0.045599853933688
 40
0.3148705007070343
 40
0.6279055159844379
 40
0.9305266751311848
 40
1.0
 40
1.0
 40
1.0
 40
1.0
 10
-531.3912977676828
 20
-120.9016096436903
 30
0.0
 10
-531.5145674982988
 20
-120.8724561067847
 30
0.0
 10
-532.3657544748526
 20
-120.6711486908405
 30
0.0
 10
-533.7267038608735
 20
-120.017078080038
 30
0.0
 10
-535.2013540594357
 20
-119.2541192799175
 30
0.0
 10
-535.7388298300029
 20
-118.9208953896947
 30
0.0
 10
-535.7666060570508
 20
-118.9046436576933
 30
0.0
 10
-535.7717921238382
 20
-118.9016093158647
 30
0.0
  0
LWPOLYLINE
  5
42F
330
1F
100
AcDbEntity
  8
0
  6
Continuous
 62
     7
370
    15
100
AcDbPolyline
 90
       13
 70
   128
 43
0.0
 10
999.2003391285
 20
-118.9181449482
 10
998.9527414341
 20
-119.0649251112
 10
998.091454317
 20
-119.548724837
 10
996.5847681064
 20
-120.2846792185
 10
994.3245599765
 20
-121.0700486445
 10
992.2546098728
 20
-121.3877656156
 10
990.1162336368
 20
-121.2725209662
 10
988.2423828144
 20
-120.8114920774
 10
986.4305208225
 20
-120.085016697
 10
984.9216888446
 20
-119.3049558097
 10
984.2529247303
 20
-118.9164545977
 10
984.2282484073
 20
-118.9016093159
 10
984.2282484073
 20
-118.9016093159
  0
LINE
  5
430
330
1F
100
AcDbEntity
  8
0
  6
Continuous
 62
     7
370
    15
100
AcDbLine
 10
261.7282221813
 20
-98.9016106942
 30
0.0
 11
201.7282197971
 21
-98.9016106942
 31
0.0
  0
LINE
  5
431
330
1F
100
AcDbEntity
  8
0
  6
Continuous
 62
     7
370
    15
100
AcDbLine
 10
261.7282221813
 20
-96.9016103664
 30
0.0
 11
201.7282197971
 21
-96.9016103664
 31
0.0
  0
LINE
  5
432
330
1F
100
AcDbEntity
  8
0
  6
Continuous
 62
     7
370
    15
100
AcDbLine
 10
246.7281768817
 20
-100.9016091594
 30
0.0
 11
216.728205492
 21
-100.9016091594
 31
0.0
  0
LINE
  5
433
330
1F
100
AcDbEntity
  8
0
  6
Continuous
 62
     7
370
    15
100
AcDbLine
 10
1021.7281530399
 20
-96.9016103664
 30
0.0
 11
961.7282102603
 21
-96.9016103664
 31
0.0
  0
LINE
  5
434
330
1F
100
AcDbEntity
  8
0
  6
Continuous
 62
     7
370
    15
100
AcDbLine
 10
1021.7281530399
 20
-98.9016106942
 30
0.0
 11
961.7282102603
 21
-98.9016106942
 31
0.0
  0
LINE
  5
435
330
1F
100
AcDbEntity
  8
0
  6
Continuous
 62
     7
370
    15
100
AcDbLine
 10
1006.728167345
 20
-100.9016091594
 30
0.0
 11
976.7281959552
 21
-100.9016091594
 31
0.0
  0
LINE
  5
436
330
1F
100
AcDbEntity
  8
0
  6
Continuous
 62
     7
370
    15
100
AcDbLine
 10
1781.7282627124
 20
-98.9016106942
 30
0.0
 11
1721.7283199329
 21
-98.9016106942
 31
0.0
  0
LINE
  5
437
330
1F
100
AcDbEntity
  8
0
  6
Continuous
 62
     7
370
    15
100
AcDbLine
 10
1781.7282627124
 20
-96.9016103664
 30
0.0
 11
1721.7283199329
 21
-96.9016103664
 31
0.0
  0
LINE
  5
438
330
1F
100
AcDbEntity
  8
0
  6
Continuous
 62
     7
370
    15
100
AcDbLine
 10
1766.7281578083
 20
-100.9016091594
 30
0.0
 11
1736.7281864185
 21
-100.9016091594
 31
0.0
  0
LINE
  5
439
330
1F
100
AcDbEntity
  8
0
  6
Continuous
 62
     7
370
    15
100
AcDbLine
 10
-498.2717980843
 20
-96.9016103664
 30
0.0
 11
-558.2717930179
 21
-96.9016103664
 31
0.0
  0
LINE
  5
43A
330
1F
100
AcDbEntity
  8
0
  6
Continuous
 62
     7
370
    15
100
AcDbLine
 10
-498.2717980843
 20
-98.9016106942
 30
0.0
 11
-558.2717930179
 21
-98.9016106942
 31
0.0
  0
LINE
  5
43B
330
1F
100
AcDbEntity
  8
0
  6
Continuous
 62
     7
370
    15
100
AcDbLine
 10
-513.2717986803
 20
-100.9016091594
 30
0.0
 11
-543.2717924219
 21
-100.9016091594
 31
0.0
  0
LINE
  5
43C
330
1F
100
AcDbEntity
  8
0
  6
Continuous
 62
     8
370
    15
100
AcDbLine
 10
1786.0281417865
 20
-147.7111856112
 30
0.0
 11
1786.0281417865
 21
-159.35160952
 31
0.0
  0
LINE
  5
43D
330
1F
100
AcDbEntity
  8
0
  6
Continuous
 62
     8
370
    15
100
AcDbLine
 10
1786.0281417865
 20
-147.4516092458
 30
0.0
 11
1786.0281417865
 21
-147.7111856112
 31
0.0
  0
LINE
  5
43E
330
1F
100
AcDbEntity
  8
0
  6
Continuous
 62
     8
370
    15
100
AcDbLine
 10
-578.5717939239
 20
-148.5642566004
 30
0.0
 11
-578.5717939239
 21
-147.4516092458
 31
0.0
  0
LINE
  5
43F
330
1F
100
AcDbEntity
  8
0
  6
Continuous
 62
     8
370
    15
100
AcDbLine
 10
-578.5717939239
 20
-159.35160952
 30
0.0
 11
-578.5717939239
 21
-148.5642566004
 31
0.0
  0
ENDSEC
  0
SECTION
  2
OBJECTS
  0
DICTIONARY
  5
C
330
0
100
AcDbDictionary
281
     1
  3
ACAD_GROUP
350
D
  3
ACAD_LAYOUT
350
1A
  3
ACAD_MLINESTYLE
350
17
  3
ACAD_PLOTSETTINGS
350
19
  3
ACAD_PLOTSTYLENAME
350
E
  3
ACAD_SCALELIST
350
47
  0
DICTIONARY
  5
D
102
{ACAD_REACTORS
330
C
102
}
330
C
100
AcDbDictionary
281
     1
  0
DICTIONARY
  5
1A
102
{ACAD_REACTORS
330
C
102
}
330
C
100
AcDbDictionary
281
     1
  3
Layout1
350
1E
  3
Layout2
350
26
  3
Model
350
22
  0
DICTIONARY
  5
17
102
{ACAD_REACTORS
330
C
102
}
330
C
100
AcDbDictionary
281
     1
  3
Standard
350
18
  0
DICTIONARY
  5
19
102
{ACAD_REACTORS
330
C
102
}
330
C
100
AcDbDictionary
281
     1
  0
ACDBDICTIONARYWDFLT
  5
E
102
{ACAD_REACTORS
330
C
102
}
330
C
100
AcDbDictionary
281
     1
  3
Normal
350
F
100
AcDbDictionaryWithDefault
340
F
  0
DICTIONARY
  5
47
102
{ACAD_REACTORS
330
C
102
}
330
C
100
AcDbDictionary
281
     1
  3
A0
350
48
  3
A1
350
49
  3
A2
350
4A
  3
A3
350
4B
  3
A4
350
4C
  3
A5
350
4D
  3
A6
350
4E
  3
A7
350
4F
  3
A8
350
50
  3
A9
350
51
  3
B0
350
52
  3
B1
350
53
  3
B2
350
54
  3
B3
350
55
  3
B4
350
56
  3
B5
350
57
  3
B6
350
58
  3
B7
350
59
  3
B8
350
5A
  3
B9
350
5B
  3
C0
350
5C
  3
C1
350
5D
  3
C2
350
5E
  3
C3
350
5F
  3
C4
350
60
  3
C5
350
61
  3
C6
350
62
  3
C7
350
63
  3
C8
350
64
  3
C9
350
65
  3
D0
350
66
  3
D1
350
67
  3
D2
350
68
  0
LAYOUT
  5
1E
102
{ACAD_REACTORS
330
1A
102
}
330
1A
100
AcDbPlotSettings
  1

  2
none_device
  4

  6

 40
0.0
 41
0.0
 42
0.0
 43
0.0
 44
0.0
 45
0.0
 46
0.0
 47
0.0
 48
0.0
 49
0.0
140
0.0
141
0.0
142
1.0
143
1.0
 70
   688
 72
     1
 73
     0
 74
     5
  7

 75
    16
147
1.0
148
0.0
149
0.0
100
AcDbLayout
  1
Layout1
 70
     1
 71
     1
 10
0.0
 20
0.0
 11
420.0
 21
297.0
 12
0.0
 22
0.0
 32
0.0
 14
1.0000000000E+20
 24
1.0000000000E+20
 34
1.0000000000E+20
 15
-1.0000000000E+20
 25
-1.0000000000E+20
 35
-1.0000000000E+20
146
0.0
 13
0.0
 23
0.0
 33
0.0
 16
1.0
 26
0.0
 36
0.0
 17
0.0
 27
1.0
 37
0.0
 76
     0
330
1B
  0
LAYOUT
  5
26
102
{ACAD_REACTORS
330
1A
102
}
330
1A
100
AcDbPlotSettings
  1

  2
none_device
  4

  6

 40
0.0
 41
0.0
 42
0.0
 43
0.0
 44
0.0
 45
0.0
 46
0.0
 47
0.0
 48
0.0
 49
0.0
140
0.0
141
0.0
142
1.0
143
1.0
 70
   688
 72
     1
 73
     0
 74
     5
  7

 75
    16
147
1.0
148
0.0
149
0.0
100
AcDbLayout
  1
Layout2
 70
     1
 71
     2
 10
0.0
 20
0.0
 11
0.0
 21
0.0
 12
0.0
 22
0.0
 32
0.0
 14
0.0
 24
0.0
 34
0.0
 15
0.0
 25
0.0
 35
0.0
146
0.0
 13
0.0
 23
0.0
 33
0.0
 16
1.0
 26
0.0
 36
0.0
 17
0.0
 27
1.0
 37
0.0
 76
     0
330
23
  0
LAYOUT
  5
22
102
{ACAD_REACTORS
330
1A
102
}
330
1A
100
AcDbPlotSettings
  1

  2
none_device
  4
Letter_(8.50_x_11.00_Inches)
  6

 40
6.35
 41
6.35
 42
6.35000508
 43
6.35000508
 44
215.9
 45
279.4
 46
0.0
 47
0.0
 48
0.0
 49
0.0
140
0.0
141
0.0
142
1.0
143
1.0
 70
  1712
 72
     1
 73
     0
 74
     0
  7

 75
     0
147
1.0
148
0.0
149
0.0
100
AcDbLayout
  1
Model
 70
     1
 71
     0
 10
0.0
 20
0.0
 11
431.8
 21
279.4
 12
0.0
 22
0.0
 32
0.0
 14
0.0
 24
0.0
 34
0.0
 15
431.8
 25
279.4
 35
0.0
146
0.0
 13
0.0
 23
0.0
 33
0.0
 16
1.0
 26
0.0
 36
0.0
 17
0.0
 27
1.0
 37
0.0
 76
     0
330
1F
331
29
  0
MLINESTYLE
  5
18
102
{ACAD_REACTORS
330
17
102
}
330
17
100
AcDbMlineStyle
  2
Standard
 70
     0
  3

 62
   256
 51
90.0
 52
90.0
 71
     2
 49
0.5
 62
   256
  6
BYLAYER
 49
-0.5
 62
   256
  6
BYLAYER
  0
ACDBPLACEHOLDER
  5
F
102
{ACAD_REACTORS
330
E
102
}
330
E
  0
SCALE
  5
48
102
{ACAD_REACTORS
330
47
102
}
330
47
100
AcDbScale
 70
     0
300
1:1
140
1.0
141
1.0
290
     1
  0
SCALE
  5
49
102
{ACAD_REACTORS
330
47
102
}
330
47
100
AcDbScale
 70
     0
300
1:2
140
1.0
141
2.0
290
     0
  0
SCALE
  5
4A
102
{ACAD_REACTORS
330
47
102
}
330
47
100
AcDbScale
 70
     0
300
1:4
140
1.0
141
4.0
290
     0
  0
SCALE
  5
4B
102
{ACAD_REACTORS
330
47
102
}
330
47
100
AcDbScale
 70
     0
300
1:5
140
1.0
141
5.0
290
     0
  0
SCALE
  5
4C
102
{ACAD_REACTORS
330
47
102
}
330
47
100
AcDbScale
 70
     0
300
1:8
140
1.0
141
8.0
290
     0
  0
SCALE
  5
4D
102
{ACAD_REACTORS
330
47
102
}
330
47
100
AcDbScale
 70
     0
300
1:10
140
1.0
141
10.0
290
     0
  0
SCALE
  5
4E
102
{ACAD_REACTORS
330
47
102
}
330
47
100
AcDbScale
 70
     0
300
1:16
140
1.0
141
16.0
290
     0
  0
SCALE
  5
4F
102
{ACAD_REACTORS
330
47
102
}
330
47
100
AcDbScale
 70
     0
300
1:20
140
1.0
141
20.0
290
     0
  0
SCALE
  5
50
102
{ACAD_REACTORS
330
47
102
}
330
47
100
AcDbScale
 70
     0
300
1:30
140
1.0
141
30.0
290
     0
  0
SCALE
  5
51
102
{ACAD_REACTORS
330
47
102
}
330
47
100
AcDbScale
 70
     0
300
1:40
140
1.0
141
40.0
290
     0
  0
SCALE
  5
52
102
{ACAD_REACTORS
330
47
102
}
330
47
100
AcDbScale
 70
     0
300
1:50
140
1.0
141
50.0
290
     0
  0
SCALE
  5
53
102
{ACAD_REACTORS
330
47
102
}
330
47
100
AcDbScale
 70
     0
300
1:100
140
1.0
141
100.0
290
     0
  0
SCALE
  5
54
102
{ACAD_REACTORS
330
47
102
}
330
47
100
AcDbScale
 70
     0
300
2:1
140
2.0
141
1.0
290
     0
  0
SCALE
  5
55
102
{ACAD_REACTORS
330
47
102
}
330
47
100
AcDbScale
 70
     0
300
4:1
140
4.0
141
1.0
290
     0
  0
SCALE
  5
56
102
{ACAD_REACTORS
330
47
102
}
330
47
100
AcDbScale
 70
     0
300
8:1
140
8.0
141
1.0
290
     0
  0
SCALE
  5
57
102
{ACAD_REACTORS
330
47
102
}
330
47
100
AcDbScale
 70
     0
300
10:1
140
10.0
141
1.0
290
     0
  0
SCALE
  5
58
102
{ACAD_REACTORS
330
47
102
}
330
47
100
AcDbScale
 70
     0
300
100:1
140
100.0
141
1.0
290
     0
  0
SCALE
  5
59
102
{ACAD_REACTORS
330
47
102
}
330
47
100
AcDbScale
 70
     0
300
1/128" = 1'-0"
140
0.0078125
141
12.0
290
     0
  0
SCALE
  5
5A
102
{ACAD_REACTORS
330
47
102
}
330
47
100
AcDbScale
 70
     0
300
1/64" = 1'-0"
140
0.015625
141
12.0
290
     0
  0
SCALE
  5
5B
102
{ACAD_REACTORS
330
47
102
}
330
47
100
AcDbScale
 70
     0
300
1/32" = 1'-0"
140
0.03125
141
12.0
290
     0
  0
SCALE
  5
5C
102
{ACAD_REACTORS
330
47
102
}
330
47
100
AcDbScale
 70
     0
300
1/16" = 1'-0"
140
0.0625
141
12.0
290
     0
  0
SCALE
  5
5D
102
{ACAD_REACTORS
330
47
102
}
330
47
100
AcDbScale
 70
     0
300
3/32" = 1'-0"
140
0.09375
141
12.0
290
     0
  0
SCALE
  5
5E
102
{ACAD_REACTORS
330
47
102
}
330
47
100
AcDbScale
 70
     0
300
1/8" = 1'-0"
140
0.125
141
12.0
290
     0
  0
SCALE
  5
5F
102
{ACAD_REACTORS
330
47
102
}
330
47
100
AcDbScale
 70
     0
300
3/16" = 1'-0"
140
0.1875
141
12.0
290
     0
  0
SCALE
  5
60
102
{ACAD_REACTORS
330
47
102
}
330
47
100
AcDbScale
 70
     0
300
1/4" = 1'-0"
140
0.25
141
12.0
290
     0
  0
SCALE
  5
61
102
{ACAD_REACTORS
330
47
102
}
330
47
100
AcDbScale
 70
     0
300
3/8" = 1'-0"
140
0.375
141
12.0
290
     0
  0
SCALE
  5
62
102
{ACAD_REACTORS
330
47
102
}
330
47
100
AcDbScale
 70
     0
300
1/2" = 1'-0"
140
0.5
141
12.0
290
     0
  0
SCALE
  5
63
102
{ACAD_REACTORS
330
47
102
}
330
47
100
AcDbScale
 70
     0
300
3/4" = 1'-0"
140
0.75
141
12.0
290
     0
  0
SCALE
  5
64
102
{ACAD_REACTORS
330
47
102
}
330
47
100
AcDbScale
 70
     0
300
1" = 1'-0"
140
1.0
141
12.0
290
     0
  0
SCALE
  5
65
102
{ACAD_REACTORS
330
47
102
}
330
47
100
AcDbScale
 70
     0
300
1-1/2" = 1'-0"
140
1.5
141
12.0
290
     0
  0
SCALE
  5
66
102
{ACAD_REACTORS
330
47
102
}
330
47
100
AcDbScale
 70
     0
300
3" = 1'-0"
140
3.0
141
12.0
290
     0
  0
SCALE
  5
67
102
{ACAD_REACTORS
330
47
102
}
330
47
100
AcDbScale
 70
     0
300
6" = 1'-0"
140
6.0
141
12.0
290
     0
  0
SCALE
  5
68
102
{ACAD_REACTORS
330
47
102
}
330
47
100
AcDbScale
 70
     0
300
1'-0" = 1'-0"
140
12.0
141
12.0
290
     0
  0
ENDSEC
  0
EOF
